  0
SECTION
  2
HEADER
  9
$ACADVER
  1
AC1015
  9
$ACADMAINTVER
 70
    20
  9
$DWGCODEPAGE
  3
ANSI_1252
  9
$INSBASE
 10
0.0
 20
0.0
 30
0.0
  9
$EXTMIN
 10
4.999999999999946
 20
4.999999999999974
 30
0.0
  9
$EXTMAX
 10
205.0
 20
292.0
 30
0.0
  9
$LIMMIN
 10
0.0
 20
0.0
  9
$LIMMAX
 10
210.0
 20
297.0
  9
$ORTHOMODE
 70
     0
  9
$REGENMODE
 70
     1
  9
$FILLMODE
 70
     1
  9
$QTEXTMODE
 70
     0
  9
$MIRRTEXT
 70
     0
  9
$LTSCALE
 40
1.0
  9
$ATTMODE
 70
     1
  9
$TEXTSIZE
 40
0.2
  9
$TRACEWID
 40
0.05
  9
$TEXTSTYLE
  7
Standard
  9
$CLAYER
  8
0
  9
$CELTYPE
  6
ByLayer
  9
$CECOLOR
 62
   256
  9
$CELTSCALE
 40
1.0
  9
$DISPSILH
 70
     0
  9
$DIMSCALE
 40
1.0
  9
$DIMASZ
 40
1.799999999999999
  9
$DIMEXO
 40
0.0625
  9
$DIMDLI
 40
0.38
  9
$DIMRND
 40
0.0
  9
$DIMDLE
 40
0.0
  9
$DIMEXE
 40
0.18
  9
$DIMTP
 40
0.0
  9
$DIMTM
 40
0.0
  9
$DIMTXT
 40
0.3048000037670135
  9
$DIMCEN
 40
0.09
  9
$DIMTSZ
 40
0.0
  9
$DIMTOL
 70
     0
  9
$DIMLIM
 70
     0
  9
$DIMTIH
 70
     1
  9
$DIMTOH
 70
     1
  9
$DIMSE1
 70
     0
  9
$DIMSE2
 70
     0
  9
$DIMTAD
 70
     0
  9
$DIMZIN
 70
     0
  9
$DIMBLK
  1

  9
$DIMASO
 70
     1
  9
$DIMSHO
 70
     1
  9
$DIMPOST
  1

  9
$DIMAPOST
  1

  9
$DIMALT
 70
     0
  9
$DIMALTD
 70
     2
  9
$DIMALTF
 40
25.4
  9
$DIMLFAC
 40
1.0
  9
$DIMTOFL
 70
     0
  9
$DIMTVP
 40
0.0
  9
$DIMTIX
 70
     0
  9
$DIMSOXD
 70
     0
  9
$DIMSAH
 70
     0
  9
$DIMBLK1
  1

  9
$DIMBLK2
  1

  9
$DIMSTYLE
  2
Standard
  9
$DIMCLRD
 70
     0
  9
$DIMCLRE
 70
     0
  9
$DIMCLRT
 70
     0
  9
$DIMTFAC
 40
1.0
  9
$DIMGAP
 40
0.09
  9
$DIMJUST
 70
     0
  9
$DIMSD1
 70
     0
  9
$DIMSD2
 70
     0
  9
$DIMTOLJ
 70
     1
  9
$DIMTZIN
 70
     0
  9
$DIMALTZ
 70
     0
  9
$DIMALTTZ
 70
     0
  9
$DIMUPT
 70
     0
  9
$DIMDEC
 70
     4
  9
$DIMTDEC
 70
     4
  9
$DIMALTU
 70
     2
  9
$DIMALTTD
 70
     2
  9
$DIMTXSTY
  7
Standard
  9
$DIMAUNIT
 70
     0
  9
$DIMADEC
 70
     0
  9
$DIMALTRND
 40
0.0
  9
$DIMAZIN
 70
     0
  9
$DIMDSEP
 70
    46
  9
$DIMATFIT
 70
     3
  9
$DIMFRAC
 70
     0
  9
$DIMLDRBLK
  1

  9
$DIMLUNIT
 70
     2
  9
$DIMLWD
 70
    -2
  9
$DIMLWE
 70
    -2
  9
$DIMTMOVE
 70
     0
  9
$LUNITS
 70
     2
  9
$LUPREC
 70
     4
  9
$SKETCHINC
 40
0.1
  9
$FILLETRAD
 40
0.0
  9
$AUNITS
 70
     0
  9
$AUPREC
 70
     0
  9
$MENU
  1
.
  9
$ELEVATION
 40
0.0
  9
$PELEVATION
 40
0.0
  9
$THICKNESS
 40
0.0
  9
$LIMCHECK
 70
     0
  9
$CHAMFERA
 40
0.0
  9
$CHAMFERB
 40
0.0
  9
$CHAMFERC
 40
0.0
  9
$CHAMFERD
 40
0.0
  9
$SKPOLY
 70
     0
  9
$TDCREATE
 40
2455813.701469907
  9
$TDUCREATE
 40
2455813.618147419
  9
$TDUPDATE
 40
2460056.585752315
  9
$TDUUPDATE
 40
2460056.502418981
  9
$TDINDWG
 40
0.0005976852
  9
$TDUSRTIMER
 40
0.0005976852
  9
$USRTIMER
 70
     1
  9
$ANGBASE
 50
0.0
  9
$ANGDIR
 70
     0
  9
$PDMODE
 70
     0
  9
$PDSIZE
 40
0.0
  9
$PLINEWID
 40
0.0
  9
$SPLFRAME
 70
     0
  9
$SPLINETYPE
 70
     6
  9
$SPLINESEGS
 70
     8
  9
$HANDSEED
  5
5F9
  9
$SURFTAB1
 70
     6
  9
$SURFTAB2
 70
     6
  9
$SURFTYPE
 70
     6
  9
$SURFU
 70
     6
  9
$SURFV
 70
     6
  9
$UCSBASE
  2

  9
$UCSNAME
  2

  9
$UCSORG
 10
0.0
 20
0.0
 30
0.0
  9
$UCSXDIR
 10
1.0
 20
0.0
 30
0.0
  9
$UCSYDIR
 10
0.0
 20
1.0
 30
0.0
  9
$UCSORTHOREF
  2

  9
$UCSORTHOVIEW
 70
     0
  9
$UCSORGTOP
 10
0.0
 20
0.0
 30
0.0
  9
$UCSORGBOTTOM
 10
0.0
 20
0.0
 30
0.0
  9
$UCSORGLEFT
 10
0.0
 20
0.0
 30
0.0
  9
$UCSORGRIGHT
 10
0.0
 20
0.0
 30
0.0
  9
$UCSORGFRONT
 10
0.0
 20
0.0
 30
0.0
  9
$UCSORGBACK
 10
0.0
 20
0.0
 30
0.0
  9
$PUCSBASE
  2

  9
$PUCSNAME
  2

  9
$PUCSORG
 10
0.0
 20
0.0
 30
0.0
  9
$PUCSXDIR
 10
1.0
 20
0.0
 30
0.0
  9
$PUCSYDIR
 10
0.0
 20
1.0
 30
0.0
  9
$PUCSORTHOREF
  2

  9
$PUCSORTHOVIEW
 70
     0
  9
$PUCSORGTOP
 10
0.0
 20
0.0
 30
0.0
  9
$PUCSORGBOTTOM
 10
0.0
 20
0.0
 30
0.0
  9
$PUCSORGLEFT
 10
0.0
 20
0.0
 30
0.0
  9
$PUCSORGRIGHT
 10
0.0
 20
0.0
 30
0.0
  9
$PUCSORGFRONT
 10
0.0
 20
0.0
 30
0.0
  9
$PUCSORGBACK
 10
0.0
 20
0.0
 30
0.0
  9
$USERI1
 70
     0
  9
$USERI2
 70
     0
  9
$USERI3
 70
     0
  9
$USERI4
 70
     0
  9
$USERI5
 70
     0
  9
$USERR1
 40
0.0
  9
$USERR2
 40
0.0
  9
$USERR3
 40
0.0
  9
$USERR4
 40
0.0
  9
$USERR5
 40
0.0
  9
$WORLDVIEW
 70
     1
  9
$SHADEDGE
 70
     3
  9
$SHADEDIF
 70
    70
  9
$TILEMODE
 70
     1
  9
$MAXACTVP
 70
    64
  9
$PINSBASE
 10
0.0
 20
0.0
 30
0.0
  9
$PLIMCHECK
 70
     0
  9
$PEXTMIN
 10
0.0
 20
0.0
 30
0.0
  9
$PEXTMAX
 10
210.0
 20
297.0
 30
0.0
  9
$PLIMMIN
 10
0.0
 20
0.0
  9
$PLIMMAX
 10
210.0
 20
297.0
  9
$UNITMODE
 70
     0
  9
$VISRETAIN
 70
     1
  9
$PLINEGEN
 70
     0
  9
$PSLTSCALE
 70
     1
  9
$TREEDEPTH
 70
  3020
  9
$CMLSTYLE
  2
Standard
  9
$CMLJUST
 70
     0
  9
$CMLSCALE
 40
1.0
  9
$PROXYGRAPHICS
 70
     1
  9
$MEASUREMENT
 70
     1
  9
$CELWEIGHT
370
    -1
  9
$ENDCAPS
280
     0
  9
$JOINSTYLE
280
     0
  9
$LWDISPLAY
290
     0
  9
$INSUNITS
 70
     4
  9
$HYPERLINKBASE
  1

  9
$STYLESHEET
  1

  9
$XEDIT
290
     1
  9
$CEPSNTYPE
380
     0
  9
$PSTYLEMODE
290
     1
  9
$FINGERPRINTGUID
  2
{D0A15BD3-B983-4658-BDAD-6DA600CDA3CC}
  9
$VERSIONGUID
  2
{882AB19C-E840-3544-8CFF-8E98A82EADD1}
  9
$EXTNAMES
290
     1
  9
$PSVPSCALE
 40
0.0
  9
$OLESTARTUP
290
     0
  0
ENDSEC
  0
SECTION
  2
CLASSES
  0
CLASS
  1
ACDBDICTIONARYWDFLT
  2
AcDbDictionaryWithDefault
  3
ObjectDBX Classes
 90
        0
280
     0
281
     0
  0
CLASS
  1
MATERIAL
  2
AcDbMaterial
  3
ObjectDBX Classes
 90
     1153
280
     0
281
     0
  0
CLASS
  1
VISUALSTYLE
  2
AcDbVisualStyle
  3
ObjectDBX Classes
 90
     4095
280
     0
281
     0
  0
CLASS
  1
SCALE
  2
AcDbScale
  3
ObjectDBX Classes
 90
     1153
280
     0
281
     0
  0
CLASS
  1
TABLESTYLE
  2
AcDbTableStyle
  3
ObjectDBX Classes
 90
     4095
280
     0
281
     0
  0
CLASS
  1
MLEADERSTYLE
  2
AcDbMLeaderStyle
  3
ACDB_MLEADERSTYLE_CLASS
 90
     4095
280
     0
281
     0
  0
CLASS
  1
DICTIONARYVAR
  2
AcDbDictionaryVar
  3
ObjectDBX Classes
 90
        0
280
     0
281
     0
  0
CLASS
  1
CELLSTYLEMAP
  2
AcDbCellStyleMap
  3
ObjectDBX Classes
 90
     1152
280
     0
281
     0
  0
CLASS
  1
ACDBSECTIONVIEWSTYLE
  2
AcDbSectionViewStyle
  3
ObjectDBX Classes
 90
     1025
280
     0
281
     0
  0
CLASS
  1
ACDBDETAILVIEWSTYLE
  2
AcDbDetailViewStyle
  3
ObjectDBX Classes
 90
     1025
280
     0
281
     0
  0
CLASS
  1
ACAD_EVALUATION_GRAPH
  2
AcDbEvalGraph
  3
ObjectDBX Classes
 90
     1153
280
     0
281
     0
  0
CLASS
  1
ACAECUSTOBJ
  2
AcAeEditorObj
  3
AcAeEditorObj
 90
     1024
280
     0
281
     0
  0
CLASS
  1
ACDB_DYNAMICBLOCKPURGEPREVENTER_VERSION
  2
AcDbDynamicBlockPurgePreventer
  3
ObjectDBX Classes
 90
     1153
280
     0
281
     0
  0
CLASS
  1
ACDBPLACEHOLDER
  2
AcDbPlaceHolder
  3
ObjectDBX Classes
 90
        0
280
     0
281
     0
  0
CLASS
  1
LAYOUT
  2
AcDbLayout
  3
ObjectDBX Classes
 90
        0
280
     0
281
     0
  0
ENDSEC
  0
SECTION
  2
TABLES
  0
TABLE
  2
VPORT
  5
8
330
0
100
AcDbSymbolTable
 70
     1
  0
VPORT
  5
62
330
8
100
AcDbSymbolTableRecord
100
AcDbViewportTableRecord
  2
*Active
 70
     0
 10
0.0
 20
0.0
 11
1.0
 21
1.0
 12
250.760708514092
 22
137.9098866549208
 13
0.0
 23
0.0
 14
1.0
 24
1.0
 15
0.0
 25
0.0
 16
0.0
 26
0.0
 36
1.0
 17
0.0
 27
0.0
 37
0.0
 40
779.251443497917
 41
2.009483667017913
 42
50.0
 43
0.0
 44
0.0
 50
0.0
 51
0.0
 71
     0
 72
   100
 73
     1
 74
     1
 75
     0
 76
     0
 77
     0
 78
     0
281
     0
 65
     1
110
0.0
120
0.0
130
0.0
111
1.0
121
0.0
131
0.0
112
0.0
122
1.0
132
0.0
 79
     0
146
0.0
1001
ACAD_NAV_VCDISPLAY
1070
     3
  0
ENDTAB
  0
TABLE
  2
LTYPE
  5
5
330
0
100
AcDbSymbolTable
 70
     2
  0
LTYPE
  5
66
330
5
100
AcDbSymbolTableRecord
100
AcDbLinetypeTableRecord
  2
ByBlock
 70
     0
  3

 72
    65
 73
     0
 40
0.0
  0
LTYPE
  5
67
330
5
100
AcDbSymbolTableRecord
100
AcDbLinetypeTableRecord
  2
ByLayer
 70
     0
  3

 72
    65
 73
     0
 40
0.0
  0
LTYPE
  5
68
330
5
100
AcDbSymbolTableRecord
100
AcDbLinetypeTableRecord
  2
Continuous
 70
     0
  3
Solid line
 72
    65
 73
     0
 40
0.0
  0
ENDTAB
  0
TABLE
  2
LAYER
  5
2
330
0
100
AcDbSymbolTable
 70
    12
  0
LAYER
  5
5F
330
2
100
AcDbSymbolTableRecord
100
AcDbLayerTableRecord
  2
0
 70
     0
 62
     7
  6
Continuous
370
    25
390
F
  0
LAYER
  5
95
330
2
100
AcDbSymbolTableRecord
100
AcDbLayerTableRecord
  2
Centerline(ISO)
 70
     0
 62
     7
  6
Continuous
370
    25
390
F
  0
LAYER
  5
9A
330
2
100
AcDbSymbolTableRecord
100
AcDbLayerTableRecord
  2
DV1_EBENE_3
 70
     0
 62
     7
  6
Continuous
370
    25
390
F
  0
LAYER
  5
9C
330
2
100
AcDbSymbolTableRecord
100
AcDbLayerTableRecord
  2
Hatch
 70
     0
 62
     7
  6
Continuous
370
     9
390
F
  0
LAYER
  5
A5
330
2
100
AcDbSymbolTableRecord
100
AcDbLayerTableRecord
  2
MaSichtkante
 70
     0
 62
     7
  6
Continuous
370
    50
390
F
  0
LAYER
  5
A7
330
2
100
AcDbSymbolTableRecord
100
AcDbLayerTableRecord
  2
MaSichtkante dünnFliese
 70
     0
 62
     7
  6
Continuous
370
    30
390
F
  0
LAYER
  5
B5
330
2
100
AcDbSymbolTableRecord
100
AcDbLayerTableRecord
  2
Sichtbare Kanten(DIN)
 70
     0
 62
     7
  6
Continuous
370
    50
390
F
  0
LAYER
  5
B6
330
2
100
AcDbSymbolTableRecord
100
AcDbLayerTableRecord
  2
Sketch Geometry(DIN)
 70
     0
 62
     7
  6
Continuous
370
    50
390
F
  0
LAYER
  5
B7
330
2
100
AcDbSymbolTableRecord
100
AcDbLayerTableRecord
  2
Sketch Geometry(ISO)
 70
     0
 62
     7
  6
Continuous
370
    50
390
F
  0
LAYER
  5
C1
330
2
100
AcDbSymbolTableRecord
100
AcDbLayerTableRecord
  2
Symbols(ISO)
 70
     0
 62
     7
  6
Continuous
370
    25
390
F
  0
LAYER
  5
C6
330
2
100
AcDbSymbolTableRecord
100
AcDbLayerTableRecord
  2
Threads(DIN)
 70
     0
 62
     7
  6
Continuous
370
    25
390
F
  0
LAYER
  5
C9
330
2
100
AcDbSymbolTableRecord
100
AcDbLayerTableRecord
  2
Visible Edges(DIN)
 70
     0
 62
     7
  6
Continuous
370
    50
390
F
  0
ENDTAB
  0
TABLE
  2
STYLE
  5
3
330
0
100
AcDbSymbolTable
 70
    24
  0
STYLE
  5
60
330
3
100
AcDbSymbolTableRecord
100
AcDbTextStyleTableRecord
  2
Standard
 70
     0
 40
0.0
 41
1.0
 50
0.0
 71
     0
 42
0.2
  3
monotxt.shx
  4

  0
STYLE
  5
65
330
3
100
AcDbSymbolTableRecord
100
AcDbTextStyleTableRecord
  2
Annotative
 70
     0
 40
0.0
 41
1.0
 50
0.0
 71
     0
 42
0.2
  3
txt
  4

1001
AcadAnnotative
1000
AnnotativeData
1002
{
1070
     1
1070
     1
1002
}
  0
STYLE
  5
D0
330
3
100
AcDbSymbolTableRecord
100
AcDbTextStyleTableRecord
  2
Current-DIN
 70
     0
 40
0.0
 41
1.0
 50
0.0
 71
     0
 42
0.2
  3
TAHOMA.TTF
  4

1001
ACAD
1000
Tahoma
1071
      256
  0
STYLE
  5
D1
330
3
100
AcDbSymbolTableRecord
100
AcDbTextStyleTableRecord
  2
Label Text (DIN)
 70
     0
 40
0.0
 41
1.0
 50
0.0
 71
     0
 42
0.2
  3
isocpeur.ttf
  4

1001
ACAD
1000
ISOCPEUR
1071
      256
  0
STYLE
  5
D2
330
3
100
AcDbSymbolTableRecord
100
AcDbTextStyleTableRecord
  2
Label Text (ISO)
 70
     0
 40
0.0
 41
1.0
 50
0.0
 71
     0
 42
0.2
  3
TAHOMA.TTF
  4

1001
ACAD
1000
Tahoma
1071
      256
  0
STYLE
  5
D3
330
3
100
AcDbSymbolTableRecord
100
AcDbTextStyleTableRecord
  2
Parts-List_2.0mm
 70
     0
 40
0.0
 41
0.899999976158142
 50
0.0
 71
     0
 42
0.2
  3
ARIAL.TTF
  4

1001
ACAD
1000
Arial
1071
      256
  0
STYLE
  5
D4
330
3
100
AcDbSymbolTableRecord
100
AcDbTextStyleTableRecord
  2
Parts-List_2.0mmByLayer
 70
     0
 40
0.0
 41
0.899999976158142
 50
0.0
 71
     0
 42
0.2
  3
ARIAL.TTF
  4

1001
ACAD
1000
Arial
1071
      256
  0
STYLE
  5
D5
330
3
100
AcDbSymbolTableRecord
100
AcDbTextStyleTableRecord
  2
Text__1.3mm
 70
     0
 40
0.0
 41
0.899999976158142
 50
0.0
 71
     0
 42
0.2
  3
ARIAL.TTF
  4

1001
ACAD
1000
Arial
1071
      256
  0
STYLE
  5
D6
330
3
100
AcDbSymbolTableRecord
100
AcDbTextStyleTableRecord
  2
Text__1.5mm
 70
     0
 40
0.0
 41
0.899999976158142
 50
0.0
 71
     0
 42
0.2
  3
ARIAL.TTF
  4

1001
ACAD
1000
Arial
1071
      256
  0
STYLE
  5
D7
330
3
100
AcDbSymbolTableRecord
100
AcDbTextStyleTableRecord
  2
Text__3.5mm
 70
     0
 40
0.0
 41
0.899999976158142
 50
0.0
 71
     0
 42
0.2
  3
ARIAL.TTF
  4

1001
ACAD
1000
Arial
1071
      256
  0
STYLE
  5
D8
330
3
100
AcDbSymbolTableRecord
100
AcDbTextStyleTableRecord
  2
Text__3.5mmBigText
 70
     0
 40
0.0
 41
0.899999976158142
 50
0.0
 71
     0
 42
0.2
  3
ARIAL.TTF
  4

1001
ACAD
1000
Arial
1071
      256
  0
STYLE
  5
D9
330
3
100
AcDbSymbolTableRecord
100
AcDbTextStyleTableRecord
  2
Text__3.5mmByLayer
 70
     0
 40
0.0
 41
0.899999976158142
 50
0.0
 71
     0
 42
0.2
  3
ARIAL.TTF
  4

1001
ACAD
1000
Arial
1071
      256
  0
STYLE
  5
DA
330
3
100
AcDbSymbolTableRecord
100
AcDbTextStyleTableRecord
  2
Text__4.0mm
 70
     0
 40
0.0
 41
0.899999976158142
 50
0.0
 71
     0
 42
0.2
  3
ARIAL.TTF
  4

1001
ACAD
1000
Arial
1071
      256
  0
STYLE
  5
DB
330
3
100
AcDbSymbolTableRecord
100
AcDbTextStyleTableRecord
  2
Text__5.0mm
 70
     0
 40
0.0
 41
0.899999976158142
 50
0.0
 71
     0
 42
0.2
  3
ARIAL.TTF
  4

1001
ACAD
1000
Arial
1071
      256
  0
STYLE
  5
DC
330
3
100
AcDbSymbolTableRecord
100
AcDbTextStyleTableRecord
  2
Text__5.0mmByLayer
 70
     0
 40
0.0
 41
0.899999976158142
 50
0.0
 71
     0
 42
0.2
  3
ARIAL.TTF
  4

1001
ACAD
1000
Arial
1071
      256
  0
STYLE
  5
DD
330
3
100
AcDbSymbolTableRecord
100
AcDbTextStyleTableRecord
  2
Text_2.5mm
 70
     0
 40
0.0
 41
0.899999976158142
 50
0.0
 71
     0
 42
0.2
  3
ARIAL.TTF
  4

1001
ACAD
1000
Arial
1071
      256
  0
STYLE
  5
DE
330
3
100
AcDbSymbolTableRecord
100
AcDbTextStyleTableRecord
  2
Text_3.5mm
 70
     0
 40
0.0
 41
0.899999976158142
 50
0.0
 71
     0
 42
0.2
  3
ARIAL.TTF
  4

1001
ACAD
1000
Arial
1071
      256
  0
STYLE
  5
DF
330
3
100
AcDbSymbolTableRecord
100
AcDbTextStyleTableRecord
  2
Text_5.0mm
 70
     0
 40
0.0
 41
0.899999976158142
 50
0.0
 71
     0
 42
0.2
  3
ARIAL.TTF
  4

1001
ACAD
1000
Arial
1071
      256
  0
STYLE
  5
E0
330
3
100
AcDbSymbolTableRecord
100
AcDbTextStyleTableRecord
  2
Text_5.0mmByLayer
 70
     0
 40
0.0
 41
0.899999976158142
 50
0.0
 71
     0
 42
0.2
  3
ARIAL.TTF
  4

1001
ACAD
1000
Arial
1071
      256
  0
STYLE
  5
105
330
3
100
AcDbSymbolTableRecord
100
AcDbTextStyleTableRecord
  2
Text Style49
 70
     0
 40
0.0
 41
0.899999976158142
 50
0.0
 71
     0
 42
0.2
  3
ARIAL.TTF
  4

1001
ACAD
1000
Arial
1071
      256
  0
STYLE
  5
2D4
330
3
100
AcDbSymbolTableRecord
100
AcDbTextStyleTableRecord
  2
Text Style20
 70
     0
 40
0.0
 41
1.0
 50
0.0
 71
     0
 42
0.2
  3
ARIAL.TTF
  4

1001
ACAD
1000
Arial
1071
      256
  0
STYLE
  5
2D6
330
3
100
AcDbSymbolTableRecord
100
AcDbTextStyleTableRecord
  2
Text Style9
 70
     0
 40
0.0
 41
1.0
 50
0.0
 71
     0
 42
0.2
  3
ARIAL.TTF
  4

1001
ACAD
1000
Arial
1071
      256
  0
STYLE
  5
2D9
330
3
100
AcDbSymbolTableRecord
100
AcDbTextStyleTableRecord
  2
Text Style38
 70
     0
 40
0.0
 41
1.0
 50
0.0
 71
     0
 42
0.2
  3
ARIAL.TTF
  4

1001
ACAD
1000
Arial
1071
      256
  0
STYLE
  5
2DC
330
3
100
AcDbSymbolTableRecord
100
AcDbTextStyleTableRecord
  2
Text Style40
 70
     0
 40
0.0
 41
1.0
 50
0.0
 71
     0
 42
0.2
  3
ARIAL.TTF
  4

1001
ACAD
1000
Arial
1071
      256
  0
ENDTAB
  0
TABLE
  2
VIEW
  5
6
330
0
100
AcDbSymbolTable
 70
     0
  0
ENDTAB
  0
TABLE
  2
UCS
  5
7
330
0
100
AcDbSymbolTable
 70
     0
  0
ENDTAB
  0
TABLE
  2
APPID
  5
9
330
0
100
AcDbSymbolTable
 70
     9
  0
APPID
  5
61
330
9
100
AcDbSymbolTableRecord
100
AcDbRegAppTableRecord
  2
ACAD
 70
     0
  0
APPID
  5
69
330
9
100
AcDbSymbolTableRecord
100
AcDbRegAppTableRecord
  2
AcadAnnotative
 70
     0
  0
APPID
  5
109
330
9
100
AcDbSymbolTableRecord
100
AcDbRegAppTableRecord
  2
AcadAnnoPO
 70
     0
  0
APPID
  5
426
330
9
100
AcDbSymbolTableRecord
100
AcDbRegAppTableRecord
  2
ACAD_MLEADERVER
 70
     0
  0
APPID
  5
43C
330
9
100
AcDbSymbolTableRecord
100
AcDbRegAppTableRecord
  2
ACAD_EXEMPT_FROM_CAD_STANDARDS
 70
     0
  0
APPID
  5
559
330
9
100
AcDbSymbolTableRecord
100
AcDbRegAppTableRecord
  2
ACAUTHENVIRON
 70
     0
  0
APPID
  5
55D
330
9
100
AcDbSymbolTableRecord
100
AcDbRegAppTableRecord
  2
AcDbDynamicBlockTrueName
 70
     0
  0
APPID
  5
55E
330
9
100
AcDbSymbolTableRecord
100
AcDbRegAppTableRecord
  2
AcDbDynamicBlockGUID
 70
     0
  0
APPID
  5
567
330
9
100
AcDbSymbolTableRecord
100
AcDbRegAppTableRecord
  2
ACAD_NAV_VCDISPLAY
 70
     0
  0
ENDTAB
  0
TABLE
  2
DIMSTYLE
  5
A
330
0
100
AcDbSymbolTable
 70
    17
100
AcDbDimStyleTable
 71
     0
  0
DIMSTYLE
105
63
330
A
100
AcDbSymbolTableRecord
100
AcDbDimStyleTableRecord
  2
Standard
 70
     0
340
60
  0
DIMSTYLE
105
64
330
A
100
AcDbSymbolTableRecord
100
AcDbDimStyleTableRecord
  2
Annotative
 70
     0
340
60
1001
AcadAnnotative
1000
AnnotativeData
1002
{
1070
     1
1070
     1
1002
}
  0
DIMSTYLE
105
E1
330
A
100
AcDbSymbolTableRecord
100
AcDbDimStyleTableRecord
  2
KS-STANDARD
 70
     0
 41
2.5
 42
0.0
 43
12.0
 44
3.174999999999998
 45
0.00000001
 46
10.0
 73
     0
 74
     0
 77
     1
 78
     8
 79
     2
140
3.5
143
0.03937
146
0.7142857142857145
147
0.8
171
     3
172
     1
176
     7
177
     7
178
     7
271
     1
274
     3
278
    44
284
     8
286
     8
340
DE
371
    25
372
    25
  0
DIMSTYLE
105
E2
330
A
100
AcDbSymbolTableRecord
100
AcDbDimStyleTableRecord
  2
KS-STANDARD$7
 70
     0
 41
2.5
 42
0.0
 43
12.0
 44
3.174999999999998
 45
0.00000001
 46
10.0
 73
     0
 74
     0
 77
     1
 78
     8
 79
     2
140
3.5
143
0.03937
146
0.7142857142857145
147
0.8
171
     3
172
     1
176
     7
177
     7
178
     7
271
     1
274
     3
278
    44
284
     8
286
     8
340
DE
371
    25
372
    25
  0
DIMSTYLE
105
E3
330
A
100
AcDbSymbolTableRecord
100
AcDbDimStyleTableRecord
  2
KS-STANDARDBigText
 70
     0
 41
5.0
 42
0.0
 43
12.0
 44
3.174999999999998
 45
0.00000001
 46
10.0
 73
     0
 74
     0
 77
     1
 78
     8
 79
     2
140
5.25
143
0.03937
146
0.4761904761904762
147
0.8
171
     3
172
     1
176
     7
177
     7
178
     7
271
     1
274
     3
278
    44
284
     8
286
     8
340
D8
371
    25
372
    25
  0
DIMSTYLE
105
E4
330
A
100
AcDbSymbolTableRecord
100
AcDbDimStyleTableRecord
  2
KS-STANDARDBigText$7
 70
     0
 41
5.0
 42
0.0
 43
12.0
 44
3.174999999999998
 45
0.00000001
 46
10.0
 73
     0
 74
     0
 77
     1
 78
     8
 79
     2
140
5.25
143
0.03937
146
0.4761904761904762
147
0.8
171
     3
172
     1
176
     7
177
     7
178
     7
271
     1
274
     3
278
    44
284
     8
286
     8
340
D8
371
    25
372
    25
  0
DIMSTYLE
105
E5
330
A
100
AcDbSymbolTableRecord
100
AcDbDimStyleTableRecord
  2
Masszeichnungen
 70
     0
 41
4.0
 42
2.0
 43
24.0
 44
2.0
 45
0.00000001
 46
20.0
 78
     8
 79
     2
140
4.0
143
0.03937
146
0.625
147
1.0
171
     3
176
     7
177
     7
178
     7
271
     1
274
     3
278
    44
284
     8
286
     8
340
DA
371
    25
372
    25
  0
DIMSTYLE
105
E6
330
A
100
AcDbSymbolTableRecord
100
AcDbDimStyleTableRecord
  2
Masszeichnungen$7
 70
     0
 41
5.0
 42
2.0
 43
24.0
 44
2.0
 45
0.00000001
 46
20.0
 78
     8
 79
     2
140
4.0
143
0.03937
146
0.625
147
1.0
171
     3
176
     7
177
     7
178
     7
271
     1
274
     3
278
    44
284
     8
286
     8
340
DA
371
    25
372
    25
  0
DIMSTYLE
105
F1
330
A
100
AcDbSymbolTableRecord
100
AcDbDimStyleTableRecord
  2
Leader-Datum(DIN)
 70
     0
 41
2.5
340
60
342
F2
  0
DIMSTYLE
105
F9
330
A
100
AcDbSymbolTableRecord
100
AcDbDimStyleTableRecord
  2
Leader-Datum(ISO)
 70
     0
 41
2.5
340
60
342
F2
  0
DIMSTYLE
105
FA
330
A
100
AcDbSymbolTableRecord
100
AcDbDimStyleTableRecord
  2
Leader-Dot(DIN)
 70
     0
 41
2.5
340
60
342
F2
  0
DIMSTYLE
105
FB
330
A
100
AcDbSymbolTableRecord
100
AcDbDimStyleTableRecord
  2
Leader-Dot(ISO)
 70
     0
 41
2.5
340
60
342
F2
  0
DIMSTYLE
105
FC
330
A
100
AcDbSymbolTableRecord
100
AcDbDimStyleTableRecord
  2
Leader-Large(DIN)
 70
     0
 41
5.0
340
60
342
F2
  0
DIMSTYLE
105
FD
330
A
100
AcDbSymbolTableRecord
100
AcDbDimStyleTableRecord
  2
Leader-OriginIndicator(DIN)
 70
     0
 41
2.5
340
60
342
F2
  0
DIMSTYLE
105
FE
330
A
100
AcDbSymbolTableRecord
100
AcDbDimStyleTableRecord
  2
Leader-OriginIndicator(ISO)
 70
     0
 41
2.5
340
60
342
F2
  0
DIMSTYLE
105
FF
330
A
100
AcDbSymbolTableRecord
100
AcDbDimStyleTableRecord
  2
Leader(DIN)
 70
     0
 41
2.5
340
60
342
F2
  0
DIMSTYLE
105
100
330
A
100
AcDbSymbolTableRecord
100
AcDbDimStyleTableRecord
  2
Leader(ISO)
 70
     0
 41
2.5
340
60
342
F2
  0
ENDTAB
  0
TABLE
  2
BLOCK_RECORD
  5
1
330
0
100
AcDbSymbolTable
 70
    14
  0
BLOCK_RECORD
  5
77
330
1
100
AcDbSymbolTableRecord
100
AcDbBlockTableRecord
  2
*Model_Space
340
7A
  0
BLOCK_RECORD
  5
73
330
1
100
AcDbSymbolTableRecord
100
AcDbBlockTableRecord
  2
*Paper_Space
340
76
  0
BLOCK_RECORD
  5
7B
330
1
100
AcDbSymbolTableRecord
100
AcDbBlockTableRecord
  2
*Paper_Space0
340
7E
  0
BLOCK_RECORD
  5
E7
330
1
100
AcDbSymbolTableRecord
100
AcDbBlockTableRecord
  2
DatumFilled45
340
0
  0
BLOCK_RECORD
  5
F2
330
1
100
AcDbSymbolTableRecord
100
AcDbBlockTableRecord
  2
_Closed
340
0
  0
BLOCK_RECORD
  5
101
330
1
100
AcDbSymbolTableRecord
100
AcDbBlockTableRecord
  2
Index
340
0
  0
BLOCK_RECORD
  5
10A
330
1
100
AcDbSymbolTableRecord
100
AcDbBlockTableRecord
  2
AIR
340
0
  0
BLOCK_RECORD
  5
117
330
1
100
AcDbSymbolTableRecord
100
AcDbBlockTableRecord
  2
Zertifizierungszeichnung
340
0
  0
BLOCK_RECORD
  5
11F
330
1
100
AcDbSymbolTableRecord
100
AcDbBlockTableRecord
  2
Pfeil 1_1
340
0
  0
BLOCK_RECORD
  5
131
330
1
100
AcDbSymbolTableRecord
100
AcDbBlockTableRecord
  2
TWK 1_1
340
0
  0
BLOCK_RECORD
  5
13F
330
1
100
AcDbSymbolTableRecord
100
AcDbBlockTableRecord
  2
TWW 1_1
340
0
  0
BLOCK_RECORD
  5
14F
330
1
100
AcDbSymbolTableRecord
100
AcDbBlockTableRecord
  2
Rollstuhl
340
0
  0
BLOCK_RECORD
  5
1AF
330
1
100
AcDbSymbolTableRecord
100
AcDbBlockTableRecord
  2
Wassermengenreg. f. Marketing
340
0
  0
BLOCK_RECORD
  5
1DF
102
{ACAD_XDICTIONARY
360
55A
102
}
330
1
100
AcDbSymbolTableRecord
100
AcDbBlockTableRecord
  2
Title Blocks WS-Marketing-FUN
340
0
102
{BLKREFS
331
2EB
102
}
1001
AcDbDynamicBlockGUID
1000
{C35B0B64-192E-D741-9AE8-0144EECE6DF7}
  0
BLOCK_RECORD
  5
300
330
1
100
AcDbSymbolTableRecord
100
AcDbBlockTableRecord
  2
Borders Planung Border
340
0
102
{BLKREFS
331
307
102
}
  0
ENDTAB
  0
ENDSEC
  0
SECTION
  2
BLOCKS
  0
BLOCK
  5
78
330
77
100
AcDbEntity
  8
0
100
AcDbBlockBegin
  2
*Model_Space
 70
     0
 10
0.0
 20
0.0
 30
0.0
  3
*Model_Space
  1

  0
ENDBLK
  5
79
330
77
100
AcDbEntity
  8
0
100
AcDbBlockEnd
  0
BLOCK
  5
74
330
73
100
AcDbEntity
 67
     1
  8
0
100
AcDbBlockBegin
  2
*Paper_Space
 70
     0
 10
0.0
 20
0.0
 30
0.0
  3
*Paper_Space
  1

  0
ENDBLK
  5
75
330
73
100
AcDbEntity
 67
     1
  8
0
100
AcDbBlockEnd
  0
BLOCK
  5
7C
330
7B
100
AcDbEntity
 67
     1
  8
0
100
AcDbBlockBegin
  2
*Paper_Space0
 70
     0
 10
0.0
 20
0.0
 30
0.0
  3
*Paper_Space0
  1

  0
ENDBLK
  5
7D
330
7B
100
AcDbEntity
 67
     1
  8
0
100
AcDbBlockEnd
  0
BLOCK
  5
E8
330
E7
100
AcDbEntity
  8
0
100
AcDbBlockBegin
  2
DatumFilled45
 70
     0
 10
0.0
 20
0.0
 30
0.0
  3
DatumFilled45
  1

  0
POLYLINE
  5
EA
330
E7
100
AcDbEntity
  8
0
 62
     0
100
AcDb2dPolyline
 66
     1
 10
0.0
 20
0.0
 30
0.0
 70
   128
  0
VERTEX
  5
EB
330
EA
100
AcDbEntity
  8
0
 62
     0
100
AcDbVertex
100
AcDb2dVertex
 10
0.0
 20
1.0
 30
0.0
  0
VERTEX
  5
EC
330
EA
100
AcDbEntity
  8
0
 62
     0
100
AcDbVertex
100
AcDb2dVertex
 10
0.0
 20
-1.0
 30
0.0
  0
VERTEX
  5
EE
330
EA
100
AcDbEntity
  8
0
 62
     0
100
AcDbVertex
100
AcDb2dVertex
 10
-1.0
 20
0.0
 30
0.0
  0
VERTEX
  5
EF
330
EA
100
AcDbEntity
  8
0
 62
     0
100
AcDbVertex
100
AcDb2dVertex
 10
0.0
 20
1.0
 30
0.0
  0
SEQEND
  5
ED
330
EA
100
AcDbEntity
  8
0
 62
     0
  0
SOLID
  5
F0
330
E7
100
AcDbEntity
  8
0
 62
     0
100
AcDbTrace
 10
0.0
 20
1.0
 30
0.0
 11
0.0
 21
-1.0
 31
0.0
 12
-1.0
 22
0.0
 32
0.0
 13
0.0
 23
1.0
 33
0.0
  0
ENDBLK
  5
E9
330
E7
100
AcDbEntity
  8
0
100
AcDbBlockEnd
  0
BLOCK
  5
F7
330
F2
100
AcDbEntity
  8
0
100
AcDbBlockBegin
  2
_Closed
 70
     0
 10
0.0
 20
0.0
 30
0.0
  3
_Closed
  1

  0
LINE
  5
F3
330
F2
100
AcDbEntity
  8
0
  6
ByBlock
 62
     0
370
    -2
100
AcDbLine
 10
-1.0
 20
0.1666666666666666
 30
0.0
 11
0.0
 21
0.0
 31
0.0
  0
LINE
  5
F4
330
F2
100
AcDbEntity
  8
0
  6
ByBlock
 62
     0
370
    -2
100
AcDbLine
 10
0.0
 20
0.0
 30
0.0
 11
-1.0
 21
-0.1666666666666666
 31
0.0
  0
LINE
  5
F5
330
F2
100
AcDbEntity
  8
0
  6
ByBlock
 62
     0
370
    -2
100
AcDbLine
 10
-1.0
 20
0.1666666666666666
 30
0.0
 11
-1.0
 21
-0.1666666666666666
 31
0.0
  0
LINE
  5
F6
330
F2
100
AcDbEntity
  8
0
  6
ByBlock
 62
     0
370
    -2
100
AcDbLine
 10
0.0
 20
0.0
 30
0.0
 11
-1.0
 21
0.0
 31
0.0
  0
ENDBLK
  5
F8
330
F2
100
AcDbEntity
  8
0
100
AcDbBlockEnd
  0
BLOCK
  5
102
330
101
100
AcDbEntity
  8
0
100
AcDbBlockBegin
  2
Index
 70
     2
 10
0.0
 20
0.0
 30
0.0
  3
Index
  1

  0
CIRCLE
  5
104
330
101
100
AcDbEntity
  8
Sketch Geometry(ISO)
  6
Continuous
 62
     7
370
    25
100
AcDbCircle
 10
0.0
 20
0.0
 30
0.0
 40
2.5
  0
ATTDEF
  5
106
102
{ACAD_XDICTIONARY
360
385
102
}
330
101
100
AcDbEntity
  8
Symbols(ISO)
 62
     7
100
AcDbText
 10
-0.0000000000000001
 20
-1.25
 30
0.0
 40
2.5
  1

 41
0.899999976158142
  7
Text Style49
 72
     1
 11
0.0
 21
0.0
 31
0.0
100
AcDbAttributeDefinition
  3
<Enter Prompt for Field>
  2
<Enter_Prompt_for_Field>
 70
     0
 74
     2
  0
ENDBLK
  5
103
330
101
100
AcDbEntity
  8
0
100
AcDbBlockEnd
  0
BLOCK
  5
10B
330
10A
100
AcDbEntity
  8
0
100
AcDbBlockBegin
  2
AIR
 70
     0
 10
0.0
 20
0.0
 30
0.0
  3
AIR
  1

  0
LINE
  5
10D
330
10A
100
AcDbEntity
  8
Sketch Geometry(ISO)
 62
     7
370
    70
100
AcDbLine
 10
-7.0
 20
6.000000000000048
 30
0.0
 11
6.999999999999992
 21
6.000000000000013
 31
0.0
  0
LINE
  5
10E
330
10A
100
AcDbEntity
  8
Sketch Geometry(ISO)
 62
     7
370
    70
100
AcDbLine
 10
10.00000000000001
 20
3.000000000000006
 30
0.0
 11
10.00000000000001
 21
-2.999999999999971
 31
0.0
  0
LINE
  5
10F
330
10A
100
AcDbEntity
  8
Sketch Geometry(ISO)
 62
     7
370
    70
100
AcDbLine
 10
6.999999999999992
 20
-5.999999999999976
 30
0.0
 11
-7.0
 21
-6.000000000000013
 31
0.0
  0
LINE
  5
110
330
10A
100
AcDbEntity
  8
Sketch Geometry(ISO)
 62
     7
370
    70
100
AcDbLine
 10
-10.00000000000001
 20
-2.999999999999971
 30
0.0
 11
-10.0
 21
3.000000000000006
 31
0.0
  0
ARC
  5
111
330
10A
100
AcDbEntity
  8
Sketch Geometry(ISO)
 62
     7
370
    70
100
AcDbCircle
 10
6.999999999999992
 20
3.000000000000006
 30
0.0
 40
3.0
100
AcDbArc
 50
0.0
 51
90.0
  0
ARC
  5
112
330
10A
100
AcDbEntity
  8
Sketch Geometry(ISO)
 62
     7
370
    70
100
AcDbCircle
 10
6.999999999999992
 20
-2.999999999999971
 30
0.0
 40
3.0
100
AcDbArc
 50
270.0
 51
0.0
  0
ARC
  5
113
330
10A
100
AcDbEntity
  8
Sketch Geometry(ISO)
 62
     7
370
    70
100
AcDbCircle
 10
-7.0
 20
-2.999999999999971
 30
0.0
 40
3.0
100
AcDbArc
 50
180.0
 51
270.0
  0
ARC
  5
114
330
10A
100
AcDbEntity
  8
Sketch Geometry(ISO)
 62
     7
370
    70
100
AcDbCircle
 10
-7.0
 20
3.000000000000006
 30
0.0
 40
3.0
100
AcDbArc
 50
90.0
 51
180.0
  0
MTEXT
  5
115
330
10A
100
AcDbEntity
  8
Symbols(ISO)
 62
     7
100
AcDbMText
 10
0.0
 20
0.0
 30
0.0
 40
6.99999988079071
 41
16.10195276430038
 71
     5
 72
     1
  1
\fArial|b0|i0;\H7.0000;AIR
  7
Text__3.5mm
 73
     1
 44
1.0
1001
ACAD
1000
MTEXTBEGIN
1070
    73
1070
     1
1070
    44
1040
1.0
1070
    74
1070
     0
1000
MTEXTEND
  0
ENDBLK
  5
10C
330
10A
100
AcDbEntity
  8
0
100
AcDbBlockEnd
  0
BLOCK
  5
118
330
117
100
AcDbEntity
  8
0
100
AcDbBlockBegin
  2
Zertifizierungszeichnung
 70
     0
 10
0.0
 20
0.0
 30
0.0
  3
Zertifizierungszeichnung
  1

  0
LINE
  5
11A
330
117
100
AcDbEntity
  8
Sketch Geometry(ISO)
100
AcDbLine
 10
-36.13491376407675
 20
6.581399957023617
 30
0.0
 11
36.13491376407676
 21
6.581399957023617
 31
0.0
  0
LINE
  5
11B
330
117
100
AcDbEntity
  8
Sketch Geometry(ISO)
100
AcDbLine
 10
36.13491376407676
 20
6.581399957023617
 30
0.0
 11
36.13491376407676
 21
-6.581399957023633
 31
0.0
  0
LINE
  5
11C
330
117
100
AcDbEntity
  8
Sketch Geometry(ISO)
100
AcDbLine
 10
36.13491376407676
 20
-6.581399957023633
 30
0.0
 11
-36.13491376407675
 21
-6.581399957023633
 31
0.0
  0
LINE
  5
11D
330
117
100
AcDbEntity
  8
Sketch Geometry(ISO)
100
AcDbLine
 10
-36.13491376407675
 20
-6.581399957023633
 30
0.0
 11
-36.13491376407675
 21
6.581399957023617
 31
0.0
  0
MTEXT
  5
11E
330
117
100
AcDbEntity
  8
Symbols(ISO)
 62
     7
100
AcDbMText
 10
-34.13997890763035
 20
-0.338671892615654
 30
0.0
 40
3.000000119209288
 41
0.0
 71
     4
 72
     1
  1
\fTahoma|b0|i0;\H3.0000;Drawing for certification purposes only!\PDrawing not for manufacturing purposes!
  7
Text__3.5mm
 73
     2
 44
0.9442214369773862
1001
ACAD
1000
MTEXTBEGIN
1070
    73
1070
     2
1070
    44
1040
0.9442214369773862
1070
    74
1070
     0
1000
MTEXTEND
  0
ENDBLK
  5
119
330
117
100
AcDbEntity
  8
0
100
AcDbBlockEnd
  0
BLOCK
  5
120
330
11F
100
AcDbEntity
  8
0
100
AcDbBlockBegin
  2
Pfeil 1_1
 70
     0
 10
0.0
 20
0.0
 30
0.0
  3
Pfeil 1_1
  1

  0
HATCH
  5
129
330
11F
100
AcDbEntity
  8
Hatch
100
AcDbHatch
 10
0.0
 20
0.0
 30
0.0
210
0.0
220
0.0
230
1.0
  2
ANSI31
 70
     0
 71
     0
 91
        1
 92
        1
 93
        7
 72
     1
 10
-2.327499999999814
 20
0.6650000000002621
 11
0.0
 21
-2.659999999999874
 72
     1
 10
0.0
 20
-2.659999999999874
 11
2.327499999999833
 21
0.6650000000002621
 72
     1
 10
2.327499999999833
 20
0.6650000000002621
 11
0.6649999999998713
 21
0.6650000000002621
 72
     1
 10
0.6649999999998713
 20
0.6650000000002621
 11
0.6649999999998713
 21
2.659999999999858
 72
     1
 10
0.6649999999998713
 20
2.659999999999858
 11
-0.6649999999999779
 21
2.659999999999858
 72
     1
 10
-0.664999999999978
 20
2.659999999999858
 11
-0.664999999999978
 21
0.6650000000002621
 72
     1
 10
-0.664999999999978
 20
0.6650000000002621
 11
-2.327499999999814
 21
0.6650000000002621
 97
        0
 75
     0
 76
     1
 52
0.0
 41
0.0254
 77
     0
 78
     1
 53
45.0
 43
0.0
 44
0.0
 45
-0.0022450640302673
 46
0.0022450640302673
 79
     0
 98
        1
 10
0.0
 20
0.0
  0
LINE
  5
12A
330
11F
100
AcDbEntity
  8
MaSichtkante dünnFliese
370
     5
100
AcDbLine
 10
-2.327499999999814
 20
0.6650000000002621
 30
0.0
 11
-0.664999999999978
 21
0.6650000000002621
 31
0.0
  0
LINE
  5
12B
330
11F
100
AcDbEntity
  8
MaSichtkante dünnFliese
370
     5
100
AcDbLine
 10
0.0
 20
-2.659999999999874
 30
0.0
 11
-2.327499999999814
 21
0.6650000000002621
 31
0.0
  0
LINE
  5
12C
330
11F
100
AcDbEntity
  8
MaSichtkante dünnFliese
370
     5
100
AcDbLine
 10
-0.664999999999978
 20
0.6650000000002621
 30
0.0
 11
-0.664999999999978
 21
2.659999999999858
 31
0.0
  0
LINE
  5
12D
330
11F
100
AcDbEntity
  8
MaSichtkante dünnFliese
370
     5
100
AcDbLine
 10
-0.664999999999978
 20
2.659999999999858
 30
0.0
 11
0.6649999999998713
 21
2.659999999999858
 31
0.0
  0
LINE
  5
12E
330
11F
100
AcDbEntity
  8
MaSichtkante dünnFliese
370
     5
100
AcDbLine
 10
0.6649999999998713
 20
2.659999999999858
 30
0.0
 11
0.6649999999998713
 21
0.6650000000002621
 31
0.0
  0
LINE
  5
12F
330
11F
100
AcDbEntity
  8
MaSichtkante dünnFliese
370
     5
100
AcDbLine
 10
2.327499999999833
 20
0.6650000000002621
 30
0.0
 11
0.0
 21
-2.659999999999874
 31
0.0
  0
LINE
  5
130
330
11F
100
AcDbEntity
  8
MaSichtkante dünnFliese
370
     5
100
AcDbLine
 10
0.6649999999998713
 20
0.6650000000002621
 30
0.0
 11
2.327499999999833
 21
0.6650000000002621
 31
0.0
  0
ENDBLK
  5
121
330
11F
100
AcDbEntity
  8
0
100
AcDbBlockEnd
  0
BLOCK
  5
132
330
131
100
AcDbEntity
  8
0
100
AcDbBlockBegin
  2
TWK 1_1
 70
     0
 10
0.0
 20
0.0
 30
0.0
  3
TWK 1_1
  1

  0
HATCH
  5
136
330
131
100
AcDbEntity
  8
Hatch
100
AcDbHatch
 10
0.0
 20
0.0
 30
0.0
210
0.0
220
0.0
230
1.0
  2
ANSI31
 70
     0
 71
     0
 91
        1
 92
        1
 93
        2
 72
     2
 10
0.0
 20
-3.324999949999316
 40
2.659999999999999
 50
148.4507563219768
 51
391.549243678031
 73
     1
 72
     1
 10
2.266827476457925
 20
-1.933204996720494
 11
-2.2668274764586
 21
-1.933204996720494
 97
        0
 75
     0
 76
     1
 52
0.0
 41
0.0254
 77
     0
 78
     1
 53
45.0
 43
0.0
 44
0.0
 45
-0.0022450640302673
 46
0.0022450640302673
 79
     0
 98
        1
 10
0.0
 20
0.0
  0
LINE
  5
137
330
131
100
AcDbEntity
  8
MaSichtkante dünnFliese
100
AcDbLine
 10
-2.266827476458601
 20
-1.933204996720494
 30
0.0
 11
2.266827476457925
 21
-1.933204996720494
 31
0.0
  0
ARC
  5
138
330
131
100
AcDbEntity
  8
MaSichtkante dünnFliese
100
AcDbCircle
 10
0.0
 20
-3.324999949999316
 30
0.0
 40
2.66
100
AcDbArc
 50
112.0243128370458
 51
67.97568716296805
  0
LINE
  5
139
330
131
100
AcDbEntity
  8
MaSichtkante dünnFliese
100
AcDbLine
 10
-0.9975000000001619
 20
-0.8591139530400582
 30
0.0
 11
-0.9975000000001619
 21
5.985000049999325
 31
0.0
  0
LINE
  5
13A
330
131
100
AcDbEntity
  8
MaSichtkante dünnFliese
100
AcDbLine
 10
0.9974999999994691
 20
5.985000049999325
 30
0.0
 11
0.9974999999994691
 21
-0.8591139530400582
 31
0.0
  0
LINE
  5
13B
330
131
100
AcDbEntity
  8
MaSichtkante dünnFliese
100
AcDbLine
 10
0.9974999999994873
 20
2.827327836441567
 30
0.0
 11
2.194499999999254
 21
2.827327836441567
 31
0.0
  0
LINE
  5
13C
330
131
100
AcDbEntity
  8
MaSichtkante dünnFliese
100
AcDbLine
 10
-0.9975000000001619
 20
5.985000049999325
 30
0.0
 11
0.9974999999994691
 21
5.985000049999325
 31
0.0
  0
LINE
  5
13D
330
131
100
AcDbEntity
  8
MaSichtkante dünnFliese
100
AcDbLine
 10
0.9974999999994691
 20
4.932451836441167
 30
0.0
 11
2.194499999999236
 21
4.932451836441167
 31
0.0
  0
LINE
  5
13E
330
131
100
AcDbEntity
  8
MaSichtkante dünnFliese
100
AcDbLine
 10
0.9974999999994691
 20
0.7222038364418637
 30
0.0
 11
2.194499999999236
 21
0.7222038364418637
 31
0.0
  0
ENDBLK
  5
133
330
131
100
AcDbEntity
  8
0
100
AcDbBlockEnd
  0
BLOCK
  5
140
330
13F
100
AcDbEntity
  8
0
100
AcDbBlockBegin
  2
TWW 1_1
 70
     0
 10
0.0
 20
0.0
 30
0.0
  3
TWW 1_1
  1

  0
HATCH
  5
146
330
13F
100
AcDbEntity
  8
Hatch
100
AcDbHatch
 10
0.0
 20
0.0
 30
0.0
210
0.0
220
0.0
230
1.0
  2
ANSI31
 70
     0
 71
     0
 91
        1
 92
        1
 93
        4
 72
     1
 10
0.9974999999997892
 20
4.796219377687264
 11
-0.9975000000000909
 21
4.796219377687264
 72
     1
 10
-0.9975000000000909
 20
4.796219377687264
 11
-0.9975000000000909
 21
-0.8591139530402891
 72
     2
 10
0.0
 20
-3.324999950000062
 40
2.659999999999827
 50
112.0243128370404
 51
427.9756871629659
 73
     1
 72
     1
 10
0.9974999999997892
 20
-0.8591139530402891
 11
0.9974999999997892
 21
4.796219377687264
 97
        0
 75
     0
 76
     1
 52
0.0
 41
0.0254
 77
     0
 78
     1
 53
45.0
 43
0.0
 44
0.0
 45
-0.0022450640302673
 46
0.0022450640302673
 79
     0
 98
        1
 10
0.0
 20
0.0
  0
LINE
  5
147
330
13F
100
AcDbEntity
  8
MaSichtkante dünnFliese
370
    18
100
AcDbLine
 10
0.9974999999997892
 20
4.893283779707643
 30
0.0
 11
2.194499999999734
 21
4.893283779707643
 31
0.0
  0
LINE
  5
148
330
13F
100
AcDbEntity
  8
MaSichtkante dünnFliese
370
    18
100
AcDbLine
 10
0.9974999999997892
 20
0.8330332774134241
 30
0.0
 11
2.194499999999734
 21
0.8330332774134241
 31
0.0
  0
LINE
  5
149
330
13F
100
AcDbEntity
  8
MaSichtkante dünnFliese
370
    18
100
AcDbLine
 10
0.9974999999997892
 20
2.863158528560525
 30
0.0
 11
2.194499999999734
 21
2.863158528560525
 31
0.0
  0
LINE
  5
14A
330
13F
100
AcDbEntity
  8
Sketch Geometry(DIN)
370
    18
100
AcDbLine
 10
0.9974999999997892
 20
5.98500004999991
 30
0.0
 11
0.9974999999997892
 21
-0.8591139530402891
 31
0.0
  0
LINE
  5
14B
330
13F
100
AcDbEntity
  8
MaSichtkante dünnFliese
100
AcDbLine
 10
-0.9975000000000909
 20
5.98500004999991
 30
0.0
 11
0.9974999999997892
 21
5.98500004999991
 31
0.0
  0
LINE
  5
14C
330
13F
100
AcDbEntity
  8
MaSichtkante dünnFliese
100
AcDbLine
 10
-0.9975000000000909
 20
-0.8591139530402891
 30
0.0
 11
-0.9975000000000909
 21
5.98500004999991
 31
0.0
  0
LINE
  5
14D
330
13F
100
AcDbEntity
  8
MaSichtkante dünnFliese
370
    18
100
AcDbLine
 10
-0.9975000000000909
 20
4.796219377687264
 30
0.0
 11
0.9974999999997892
 21
4.796219377687264
 31
0.0
  0
ARC
  5
14E
330
13F
100
AcDbEntity
  8
MaSichtkante dünnFliese
370
    18
100
AcDbCircle
 10
0.0
 20
-3.324999950000062
 30
0.0
 40
2.659999999999829
100
AcDbArc
 50
112.0243128370402
 51
67.9756871629658
  0
ENDBLK
  5
141
330
13F
100
AcDbEntity
  8
0
100
AcDbBlockEnd
  0
BLOCK
  5
150
330
14F
100
AcDbEntity
  8
0
100
AcDbBlockBegin
  2
Rollstuhl
 70
     0
 10
0.0
 20
0.0
 30
0.0
  3
Rollstuhl
  1

  0
HATCH
  5
153
330
14F
100
AcDbEntity
  8
Hatch
100
AcDbHatch
 10
0.0
 20
0.0
 30
0.0
210
0.0
220
0.0
230
1.0
  2
SOLID
 70
     1
 71
     0
 91
        1
 92
        1
 93
        1
 72
     2
 10
-0.7011489999958087
 20
2.009050049999991
 40
0.5694427999999987
 50
0.0
 51
360.0
 73
     1
 97
        0
 75
     0
 76
     1
 98
        1
 10
0.0
 20
0.0
  0
HATCH
  5
155
330
14F
100
AcDbEntity
  8
Hatch
100
AcDbHatch
 10
0.0
 20
0.0
 30
0.0
210
0.0
220
0.0
230
1.0
  2
SOLID
 70
     1
 71
     0
 91
        1
 92
        1
 93
        1
 72
     2
 10
-1.288215599995812
 20
0.6949340499999935
 40
0.1820490773809734
 50
0.0
 51
360.0
 73
     1
 97
        0
 75
     0
 76
     1
 98
        1
 10
0.0
 20
0.0
  0
HATCH
  5
15A
330
14F
100
AcDbEntity
  8
Hatch
100
AcDbHatch
 10
0.0
 20
0.0
 30
0.0
210
0.0
220
0.0
230
1.0
  2
SOLID
 70
     1
 71
     0
 91
        1
 92
        1
 93
        4
 72
     2
 10
-1.288215599995812
 20
0.6949340499999935
 40
0.1820490773809734
 50
194.1156009999883
 51
374.1191999999931
 73
     1
 72
     1
 10
-1.111666166139038
 20
0.7393431029072417
 11
-1.006098999995792
 21
0.3045776499999775
 72
     2
 10
-0.7856091629635387
 20
-1.126678140020479
 40
1.448139808409944
 50
98.75776231784591
 51
113.407293107217
 73
     1
 72
     1
 10
-1.360903999995811
 20
0.2022856500000003
 11
-1.464767823032282
 21
0.6505360870270849
 97
        0
 75
     0
 76
     1
 98
        1
 10
0.0
 20
0.0
  0
HATCH
  5
15C
330
14F
100
AcDbEntity
  8
Hatch
100
AcDbHatch
 10
0.0
 20
0.0
 30
0.0
210
0.0
220
0.0
230
1.0
  2
SOLID
 70
     1
 71
     0
 91
        1
 92
        1
 93
        1
 72
     2
 10
-0.6298206591064748
 20
1.046676721594828
 40
0.2985609999891063
 50
0.0
 51
360.0
 73
     1
 97
        0
 75
     0
 76
     1
 98
        1
 10
0.0
 20
0.0
  0
HATCH
  5
164
330
14F
100
AcDbEntity
  8
Hatch
100
AcDbHatch
 10
0.0
 20
0.0
 30
0.0
210
0.0
220
0.0
230
1.0
  2
SOLID
 70
     1
 71
     0
 91
        1
 92
        1
 93
        7
 72
     1
 10
0.0499713260041901
 20
0.0568420499999789
 11
0.5708084000042036
 21
0.0568420499999789
 72
     2
 10
0.5708105888404802
 20
0.3556249862726446
 40
0.2987829362811203
 50
269.9995802602308
 51
449.9995794064582
 73
     1
 72
     1
 10
0.5708127776767569
 20
0.6544079225452748
 11
-0.2482047581505498
 21
0.6544139225374935
 72
     1
 10
-0.2482047581505498
 20
0.6544139225374935
 11
-0.3368947765185837
 21
1.104409710644524
 72
     2
 10
-0.6298206591064039
 20
1.046676721594542
 40
0.2985609999891254
 50
348.8504321595365
 51
527.9877819753263
 73
     0
 72
     1
 10
-0.9218441412547305
 20
0.9845401253852868
 11
-0.7807629370958047
 21
0.3215005155999862
 72
     2
 10
-0.7851822003365072
 20
-1.12849275090184
 40
1.450000000961457
 50
270.1746244993671
 51
305.1674464589362
 73
     0
 97
        0
 75
     0
 76
     1
 98
        1
 10
0.0
 20
0.0
  0
HATCH
  5
167
330
14F
100
AcDbEntity
  8
Hatch
100
AcDbHatch
 10
0.0
 20
0.0
 30
0.0
210
0.0
220
0.0
230
1.0
  2
SOLID
 70
     1
 71
     0
 91
        2
 92
        0
 93
        1
 72
     2
 10
-0.7851821999958021
 20
-1.128492749999985
 40
1.05
 50
0.0
 51
360.0
 73
     1
 97
        0
 92
        1
 93
        1
 72
     2
 10
-0.7851821999958021
 20
-1.128492749999985
 40
1.450000000961457
 50
0.0
 51
360.0
 73
     1
 97
        0
 75
     0
 76
     1
 98
        1
 10
0.0
 20
0.0
  0
HATCH
  5
169
330
14F
100
AcDbEntity
  8
Hatch
100
AcDbHatch
 10
0.0
 20
0.0
 30
0.0
210
0.0
220
0.0
230
1.0
  2
SOLID
 70
     1
 71
     0
 91
        1
 92
        1
 93
        1
 72
     2
 10
-0.7851821999958021
 20
-1.128492749999985
 40
0.2303132000000005
 50
0.0
 51
360.0
 73
     1
 97
        0
 75
     0
 76
     1
 98
        1
 10
0.0
 20
0.0
  0
HATCH
  5
174
330
14F
100
AcDbEntity
  8
Hatch
100
AcDbHatch
 10
0.0
 20
0.0
 30
0.0
210
0.0
220
0.0
230
1.0
  2
SOLID
 70
     1
 71
     0
 91
        1
 92
        1
 93
       10
 72
     1
 10
1.048632343789055
 20
-0.1859091206429042
 11
0.3166594443277404
 21
-0.185909120524208
 72
     2
 10
-0.7851821427137118
 20
-1.128482689539538
 40
1.449999936531157
 50
319.454570500685
 51
343.9443246465982
 73
     0
 72
     1
 10
0.6082582267399417
 20
-0.7274543205714679
 11
0.8004044001399535
 21
-0.7274603206026243
 72
     1
 10
0.8004044001399535
 20
-0.7274603206026243
 11
1.100736557521386
 21
-1.854864663818779
 72
     2
 10
1.345712454885639
 20
-1.759207972723686
 40
0.2629893397852458
 50
201.3293470432384
 51
270.3985507546188
 73
     1
 72
     1
 10
1.347541800004189
 20
-2.022190950000001
 11
1.930175800004203
 21
-2.022190950000001
 72
     2
 10
1.930175800010295
 20
-1.717184550006293
 40
0.3050063999936867
 50
269.9999999988554
 51
449.9994801198416
 73
     1
 72
     1
 10
1.930178567522613
 20
-1.412178150040617
 11
1.577497800028933
 21
-1.41217494995832
 72
     1
 10
1.577497800028933
 20
-1.41217494995832
 11
1.30477342409902
 21
-0.3630304458140543
 72
     2
 10
1.048632343744664
 20
-0.4596768806282016
 40
0.2737677599853261
 50
20.67235376574744
 51
89.99999999070956
 73
     1
 97
        0
 75
     0
 76
     1
 98
        1
 10
0.0
 20
0.0
  0
ARC
  5
175
330
14F
100
AcDbEntity
  8
DV1_EBENE_3
  6
Continuous
 62
     7
370
    25
100
AcDbCircle
 10
-0.7851821999958021
 20
-1.128492749999985
 30
0.0
 40
1.45
100
AcDbArc
 50
40.54679900000003
 51
54.83879900000014
  0
ARC
  5
176
330
14F
100
AcDbEntity
  8
0
  6
Continuous
 62
     7
370
     5
100
AcDbCircle
 10
-0.7851821993772746
 20
-1.128492749338327
 30
0.0
 40
1.44999999913087
100
AcDbArc
 50
40.5454289600747
 51
54.83255353646479
  0
LINE
  5
177
330
14F
100
AcDbEntity
  8
DV1_EBENE_3
  6
Continuous
 62
     7
370
    25
100
AcDbLine
 10
0.0499160000041954
 20
0.0568420499999789
 30
0.0
 11
0.5708100000042116
 21
0.0568420499999789
 31
0.0
  0
ARC
  5
178
330
14F
100
AcDbEntity
  8
Sketch Geometry(ISO)
100
AcDbCircle
 10
-0.7851821427137118
 20
-1.128482689539538
 30
0.0
 40
1.449999936531157
100
AcDbArc
 50
16.0556753534023
 51
40.54542949931561
  0
ARC
  5
179
330
14F
100
AcDbEntity
  8
DV1_EBENE_3
  6
Continuous
 62
     7
370
    25
100
AcDbCircle
 10
-0.7851821999958021
 20
-1.128492749999985
 30
0.0
 40
1.45
100
AcDbArc
 50
0.0
 51
16.05599999999911
  0
ARC
  5
17A
330
14F
100
AcDbEntity
  8
0
  6
Continuous
 62
     7
370
     5
100
AcDbCircle
 10
-0.7851822009241261
 20
-1.128482720374569
 30
0.0
 40
1.45000000099905
100
AcDbArc
 50
0.0
 51
16.05567588814703
  0
CIRCLE
  5
17B
330
14F
100
AcDbEntity
  8
DV1_EBENE_3
  6
Continuous
 62
     7
370
    25
100
AcDbCircle
 10
-0.7851821999958021
 20
-1.128492749999985
 30
0.0
 40
0.2303132000000005
  0
ARC
  5
17C
330
14F
100
AcDbEntity
  8
Sketch Geometry(ISO)
100
AcDbCircle
 10
-0.7851822003365072
 20
-1.12849275090184
 30
0.0
 40
1.450000000961457
100
AcDbArc
 50
54.83255354106379
 51
89.82537550063288
  0
ARC
  5
17D
330
14F
100
AcDbEntity
  8
0
  6
Continuous
 62
     7
370
     5
100
AcDbCircle
 10
-0.7851821999999942
 20
-1.12849274994886
 30
0.0
 40
1.450000000004195
100
AcDbArc
 50
113.3941135595942
 51
0.0
  0
ARC
  5
17E
330
14F
100
AcDbEntity
  8
DV1_EBENE_3
  6
Continuous
 62
     7
370
    25
100
AcDbCircle
 10
-0.7851821999958021
 20
-1.128492749999985
 30
0.0
 40
1.45
100
AcDbArc
 50
113.3927990000001
 51
0.0
  0
CIRCLE
  5
17F
330
14F
100
AcDbEntity
  8
Sketch Geometry(ISO)
100
AcDbCircle
 10
-0.7851821999958021
 20
-1.128492749999985
 30
0.0
 40
1.450000000961457
  0
CIRCLE
  5
180
330
14F
100
AcDbEntity
  8
DV1_EBENE_3
  6
Continuous
 62
     7
370
    25
100
AcDbCircle
 10
-0.7851821999958021
 20
-1.128492749999985
 30
0.0
 40
1.05
  0
CIRCLE
  5
181
330
14F
100
AcDbEntity
  8
Sketch Geometry(ISO)
100
AcDbCircle
 10
-0.7851821999958021
 20
-1.128492749999985
 30
0.0
 40
1.050000000000002
  0
CIRCLE
  5
182
330
14F
100
AcDbEntity
  8
Sketch Geometry(ISO)
100
AcDbCircle
 10
-0.7851821999958021
 20
-1.128492749999985
 30
0.0
 40
0.230313199999995
  0
ARC
  5
183
330
14F
100
AcDbEntity
  8
Sketch Geometry(ISO)
100
AcDbCircle
 10
-0.7856091629635387
 20
-1.126678140020479
 30
0.0
 40
1.448139808409944
100
AcDbArc
 50
98.75776231784591
 51
113.4072931072169
  0
LINE
  5
184
330
14F
100
AcDbEntity
  8
Sketch Geometry(ISO)
100
AcDbLine
 10
0.8004044001399535
 20
-0.7274603206026243
 30
0.0
 11
0.6082582267399417
 21
-0.7274543205714679
 31
0.0
  0
LINE
  5
185
330
14F
100
AcDbEntity
  8
DV1_EBENE_3
  6
Continuous
 62
     7
370
    25
100
AcDbLine
 10
0.6082306000510407
 20
-0.7274613495686211
 30
0.0
 11
0.8004043999573616
 21
-0.7274673504313256
 31
0.0
  0
LINE
  5
186
330
14F
100
AcDbEntity
  8
DV1_EBENE_3
  6
Continuous
 62
     7
370
    25
100
AcDbLine
 10
-1.360903999995811
 20
0.2022856500000003
 30
0.0
 11
-1.467092999995801
 21
0.6500060499999805
 31
0.0
  0
LINE
  5
187
330
14F
100
AcDbEntity
  8
0
  6
Continuous
 62
     7
370
     5
100
AcDbLine
 10
-1.360909920695813
 20
0.2023106133000141
 30
0.0
 11
-1.467168146195819
 21
0.6499871757999998
 31
0.0
  0
ARC
  5
188
330
14F
100
AcDbEntity
  8
DV1_EBENE_3
  6
Continuous
 62
     7
370
    25
100
AcDbCircle
 10
-1.288215599995812
 20
0.6949340499999935
 30
0.0
 40
0.1820490773809734
100
AcDbArc
 50
14.11919999999311
 51
194.1156009999883
  0
LINE
  5
189
330
14F
100
AcDbEntity
  8
Sketch Geometry(ISO)
100
AcDbLine
 10
-0.7807629370958047
 20
0.3215005155999862
 30
0.0
 11
-0.9218441412547305
 21
0.9845401253852868
 31
0.0
  0
ARC
  5
18A
330
14F
100
AcDbEntity
  8
0
  6
Continuous
 62
     7
370
     5
100
AcDbCircle
 10
-0.7851821998311693
 20
-1.12849274934426
 30
0.0
 40
1.449999999402351
100
AcDbArc
 50
89.82537552041328
 51
98.76352491918147
  0
ARC
  5
18B
330
14F
100
AcDbEntity
  8
DV1_EBENE_3
  6
Continuous
 62
     7
370
    25
100
AcDbCircle
 10
-0.7851821999958021
 20
-1.128492749999985
 30
0.0
 40
1.45
100
AcDbArc
 50
89.82720199999993
 51
98.76599900000003
  0
LINE
  5
18C
330
14F
100
AcDbEntity
  8
0
  6
Continuous
 62
     7
370
     5
100
AcDbLine
 10
-1.109338399995801
 20
0.7398604500000161
 30
0.0
 11
-1.006099398795807
 21
0.3045793316999834
 31
0.0
  0
LINE
  5
18D
330
14F
100
AcDbEntity
  8
DV1_EBENE_3
  6
Continuous
 62
     7
370
    25
100
AcDbLine
 10
-1.006098999995792
 20
0.3045776499999775
 30
0.0
 11
-1.109338399995801
 21
0.7398604500000161
 31
0.0
  0
LINE
  5
18E
330
14F
100
AcDbEntity
  8
Sketch Geometry(ISO)
100
AcDbLine
 10
-1.111666166139038
 20
0.7393431029072417
 30
0.0
 11
-1.006098999995792
 21
0.3045776499999775
 31
0.0
  0
LINE
  5
18F
330
14F
100
AcDbEntity
  8
Sketch Geometry(ISO)
100
AcDbLine
 10
-1.464767823032282
 20
0.6505360870270849
 30
0.0
 11
-1.360903999995811
 21
0.2022856500000003
 31
0.0
  0
CIRCLE
  5
190
330
14F
100
AcDbEntity
  8
Sketch Geometry(ISO)
100
AcDbCircle
 10
-1.288215599995812
 20
0.6949340499999935
 30
0.0
 40
0.1820490773809734
  0
LINE
  5
191
330
14F
100
AcDbEntity
  8
DV1_EBENE_3
  6
Continuous
 62
     7
370
    25
100
AcDbLine
 10
1.577497800011452
 20
-1.41217335017334
 30
0.0
 11
1.93013759999692
 21
-1.412176549826718
 31
0.0
  0
LINE
  5
192
330
14F
100
AcDbEntity
  8
0
  6
Continuous
 62
     7
370
     5
100
AcDbLine
 10
1.930175800004203
 20
-2.022190950000001
 30
0.0
 11
1.328029578604184
 21
-2.022190950000001
 31
0.0
  0
ARC
  5
193
330
14F
100
AcDbEntity
  8
DV1_EBENE_3
  6
Continuous
 62
     7
370
    25
100
AcDbCircle
 10
1.347541799972907
 20
-1.757631520691339
 30
0.0
 40
0.2652680000000003
100
AcDbArc
 50
201.5028079907156
 51
265.9787899907161
  0
LINE
  5
194
330
14F
100
AcDbEntity
  8
Sketch Geometry(ISO)
100
AcDbLine
 10
1.577497800028933
 20
-1.41217494995832
 30
0.0
 11
1.930178567522613
 21
-1.412178150040617
 31
0.0
  0
ARC
  5
195
330
14F
100
AcDbEntity
  8
Sketch Geometry(ISO)
100
AcDbCircle
 10
1.345712454885639
 20
-1.759207972723686
 30
0.0
 40
0.2629893397852459
100
AcDbArc
 50
201.3293470432384
 51
270.3985507546188
  0
ARC
  5
196
330
14F
100
AcDbEntity
  8
0
  6
Continuous
 62
     7
370
     5
100
AcDbCircle
 10
1.930175800018218
 20
-1.717184550014039
 30
0.0
 40
0.3050063999859844
100
AcDbArc
 50
0.0
 51
89.99948012132987
  0
ARC
  5
197
330
14F
100
AcDbEntity
  8
Sketch Geometry(ISO)
100
AcDbCircle
 10
1.930175800010295
 20
-1.717184550006293
 30
0.0
 40
0.3050063999936867
100
AcDbArc
 50
270.0
 51
89.99948011984164
  0
ARC
  5
198
330
14F
100
AcDbEntity
  8
0
  6
Continuous
 62
     7
370
     5
100
AcDbCircle
 10
1.930175800018218
 20
-1.717184550014039
 30
0.0
 40
0.3050063999859844
100
AcDbArc
 50
270.0
 51
0.0
  0
LINE
  5
199
330
14F
100
AcDbEntity
  8
Sketch Geometry(ISO)
100
AcDbLine
 10
1.930175800004203
 20
-2.022190950000001
 30
0.0
 11
1.347541800004189
 21
-2.022190950000001
 31
0.0
  0
ARC
  5
19A
330
14F
100
AcDbEntity
  8
Sketch Geometry(ISO)
100
AcDbCircle
 10
-0.6298206591064039
 20
1.046676721594542
 30
0.0
 40
0.2985609999891252
100
AcDbArc
 50
192.0122180246737
 51
11.14956784046415
  0
ARC
  5
19B
330
14F
100
AcDbEntity
  8
0
  6
Continuous
 62
     7
370
     5
100
AcDbCircle
 10
-0.6298206591064748
 20
1.046676721594828
 30
0.0
 40
0.2985609999891042
100
AcDbArc
 50
11.14956784040802
 51
189.2502837002104
  0
CIRCLE
  5
19C
330
14F
100
AcDbEntity
  8
Sketch Geometry(ISO)
100
AcDbCircle
 10
-0.6298206591064748
 20
1.046676721594828
 30
0.0
 40
0.2985609999891064
  0
CIRCLE
  5
19D
330
14F
100
AcDbEntity
  8
DV1_EBENE_3
  6
Continuous
 62
     7
370
    25
100
AcDbCircle
 10
-0.7011489999958087
 20
2.009050049999991
 30
0.0
 40
0.5694427999999988
  0
CIRCLE
  5
19E
330
14F
100
AcDbEntity
  8
Sketch Geometry(ISO)
100
AcDbCircle
 10
-0.7011489999958087
 20
2.009050049999991
 30
0.0
 40
0.5694427999999899
  0
LINE
  5
19F
330
14F
100
AcDbEntity
  8
Sketch Geometry(ISO)
100
AcDbLine
 10
-0.3368947765185837
 20
1.104409710644524
 30
0.0
 11
-0.2482047581505498
 21
0.6544139225374935
 31
0.0
  0
LINE
  5
1A0
330
14F
100
AcDbEntity
  8
Sketch Geometry(ISO)
100
AcDbLine
 10
1.100736557521386
 20
-1.854864663818779
 30
0.0
 11
0.8004044001399535
 21
-0.7274603206026243
 31
0.0
  0
LINE
  5
1A1
330
14F
100
AcDbEntity
  8
DV1_EBENE_3
  6
Continuous
 62
     7
370
    25
100
AcDbLine
 10
0.8004044001399535
 20
-0.7274603206026243
 30
0.0
 11
1.100723647815762
 21
-1.854816202613989
 31
0.0
  0
LINE
  5
1A2
330
14F
100
AcDbEntity
  8
Sketch Geometry(ISO)
100
AcDbLine
 10
1.30477342409902
 20
-0.3630304458140543
 30
0.0
 11
1.577497800028933
 21
-1.41217494995832
 31
0.0
  0
ARC
  5
1A3
330
14F
100
AcDbEntity
  8
0
  6
Continuous
 62
     7
370
     5
100
AcDbCircle
 10
1.046289000214811
 20
-0.4614701498040576
 30
0.0
 40
0.2765945999335329
100
AcDbArc
 50
20.84854375071103
 51
85.02125981535959
  0
ARC
  5
1A4
330
14F
100
AcDbEntity
  8
DV1_EBENE_3
  6
Continuous
 62
     7
370
    25
100
AcDbCircle
 10
1.04628900000419
 20
-0.4614701499999896
 30
0.0
 40
0.2765946000000014
100
AcDbArc
 50
20.87999899999449
 51
85.1075969999975
  0
ARC
  5
1A5
330
14F
100
AcDbEntity
  8
Sketch Geometry(ISO)
100
AcDbCircle
 10
1.048632343744664
 20
-0.4596768806282016
 30
0.0
 40
0.2737677599853261
100
AcDbArc
 50
20.67235376574742
 51
90.0
  0
LINE
  5
1A6
330
14F
100
AcDbEntity
  8
0
  6
Continuous
 62
     7
370
     5
100
AcDbLine
 10
1.30477342409902
 20
-0.3630304458140543
 30
0.0
 11
1.577497800028933
 21
-1.41217494995832
 31
0.0
  0
LINE
  5
1A7
330
14F
100
AcDbEntity
  8
0
  6
Continuous
 62
     7
370
     5
100
AcDbLine
 10
0.5708084000042036
 20
0.0568420499999789
 30
0.0
 11
0.0499713260041901
 21
0.0568420499999789
 31
0.0
  0
LINE
  5
1A8
330
14F
100
AcDbEntity
  8
Sketch Geometry(ISO)
100
AcDbLine
 10
0.0499713260041901
 20
0.0568420499999789
 30
0.0
 11
0.5708084000042036
 21
0.0568420499999789
 31
0.0
  0
LINE
  5
1A9
330
14F
100
AcDbEntity
  8
DV1_EBENE_3
  6
Continuous
 62
     7
370
    25
100
AcDbLine
 10
-0.2482161999957988
 20
0.6544098499999862
 30
0.0
 11
0.5708068000041955
 21
0.6544098499999862
 31
0.0
  0
LINE
  5
1AA
330
14F
100
AcDbEntity
  8
0
  6
Continuous
 62
     7
370
     5
100
AcDbLine
 10
-0.2482161999875743
 20
0.6544113500219595
 30
0.0
 11
0.5708083999959614
 21
0.654405349977978
 31
0.0
  0
LINE
  5
1AB
330
14F
100
AcDbEntity
  8
Sketch Geometry(ISO)
100
AcDbLine
 10
-0.2482047581505498
 20
0.6544139225374935
 30
0.0
 11
0.5708127776767569
 21
0.6544079225452748
 31
0.0
  0
LINE
  5
1AC
330
14F
100
AcDbEntity
  8
Sketch Geometry(ISO)
100
AcDbLine
 10
1.048632343789055
 20
-0.1859091206429042
 30
0.0
 11
0.3166594443277404
 21
-0.185909120524208
 31
0.0
  0
LINE
  5
1AD
330
14F
100
AcDbEntity
  8
0
  6
Continuous
 62
     7
370
     5
100
AcDbLine
 10
0.3166594443277404
 20
-0.185909120524208
 30
0.0
 11
1.070293565427729
 21
-0.1859091206464214
 31
0.0
  0
ARC
  5
1AE
330
14F
100
AcDbEntity
  8
Sketch Geometry(ISO)
100
AcDbCircle
 10
0.5708105888404802
 20
0.3556249862726446
 30
0.0
 40
0.2987829362811203
100
AcDbArc
 50
269.9995802602308
 51
89.9995802602309
  0
ENDBLK
  5
151
330
14F
100
AcDbEntity
  8
0
100
AcDbBlockEnd
  0
BLOCK
  5
1B0
330
1AF
100
AcDbEntity
  8
0
100
AcDbBlockBegin
  2
Wassermengenreg. f. Marketing
 70
     0
 10
0.0
 20
0.0
 30
0.0
  3
Wassermengenreg. f. Marketing
  1

  0
CIRCLE
  5
1B2
330
1AF
100
AcDbEntity
  8
Sketch Geometry(ISO)
  6
Continuous
370
    35
100
AcDbCircle
 10
0.1116880703840017
 20
4.233448017976026
 30
0.0
 40
1.266605528412369
  0
LINE
  5
1B3
330
1AF
100
AcDbEntity
  8
Sketch Geometry(ISO)
  6
Continuous
370
    35
100
AcDbLine
 10
-1.557569369604169
 20
2.564327931462066
 30
0.0
 11
1.780945510372173
 21
2.564327931462066
 31
0.0
  0
LINE
  5
1B4
330
1AF
100
AcDbEntity
  8
Sketch Geometry(ISO)
  6
Continuous
370
    35
100
AcDbLine
 10
-0.9466735383287348
 20
4.233448017976026
 30
0.0
 11
-0.9466735383287348
 21
2.564327931462066
 31
0.0
  0
LINE
  5
1B5
330
1AF
100
AcDbEntity
  8
Sketch Geometry(ISO)
  6
Continuous
370
    35
100
AcDbLine
 10
1.170049679096738
 20
4.233448017976026
 30
0.0
 11
1.170049679096738
 21
2.564327931462066
 31
0.0
  0
LINE
  5
1B6
330
1AF
100
AcDbEntity
  8
Sketch Geometry(ISO)
  6
Continuous
370
    35
100
AcDbLine
 10
1.780945510372173
 20
2.564327931462066
 30
0.0
 11
1.780945510372173
 21
1.244443056685256
 31
0.0
  0
LINE
  5
1B7
330
1AF
100
AcDbEntity
  8
Sketch Geometry(ISO)
  6
Continuous
370
    35
100
AcDbLine
 10
1.780945510372173
 20
1.244443056685256
 30
0.0
 11
1.86594551037217
 21
1.159443056685258
 31
0.0
  0
LINE
  5
1B8
330
1AF
100
AcDbEntity
  8
Sketch Geometry(ISO)
  6
Continuous
370
    35
100
AcDbLine
 10
1.86594551037217
 20
1.159443056685258
 30
0.0
 11
1.86594551037217
 21
0.2900152046613691
 31
0.0
  0
LINE
  5
1B9
330
1AF
100
AcDbEntity
  8
Sketch Geometry(ISO)
  6
Continuous
370
    35
100
AcDbLine
 10
1.86594551037217
 20
0.2900152046613691
 30
0.0
 11
-1.642569369604166
 21
0.2900152046613691
 31
0.0
  0
LINE
  5
1BA
330
1AF
100
AcDbEntity
  8
Sketch Geometry(ISO)
  6
Continuous
370
    35
100
AcDbLine
 10
-1.642569369604166
 20
0.2900152046613691
 30
0.0
 11
-1.642569369604166
 21
1.29774272039171
 31
0.0
  0
LINE
  5
1BB
330
1AF
100
AcDbEntity
  8
Sketch Geometry(ISO)
  6
Continuous
370
    35
100
AcDbLine
 10
-1.642569369604166
 20
1.29774272039171
 30
0.0
 11
-1.557569369604169
 21
1.382742720391707
 31
0.0
  0
LINE
  5
1BC
330
1AF
100
AcDbEntity
  8
Sketch Geometry(ISO)
  6
Continuous
370
    35
100
AcDbLine
 10
-1.557569369604169
 20
1.382742720391707
 30
0.0
 11
-1.557569369604169
 21
2.564327931462066
 31
0.0
  0
ARC
  5
1BD
330
1AF
100
AcDbEntity
  8
Sketch Geometry(ISO)
  6
Continuous
370
    35
100
AcDbCircle
 10
0.1116880703840017
 20
4.233448017976026
 30
0.0
 40
1.058361608712735
100
AcDbArc
 50
0.0
 51
180.0
  0
LINE
  5
1BE
330
1AF
100
AcDbEntity
  8
Sketch Geometry(ISO)
  6
Continuous
370
    35
100
AcDbLine
 10
-1.343376961700819
 20
2.307766729498368
 30
0.0
 11
1.566753102468823
 21
2.307766729498368
 31
0.0
  0
LINE
  5
1BF
330
1AF
100
AcDbEntity
  8
Sketch Geometry(ISO)
  6
Continuous
370
    35
100
AcDbLine
 10
1.566753102468823
 20
2.307766729498368
 30
0.0
 11
1.566753102468823
 21
0.2900152046613691
 31
0.0
  0
LINE
  5
1C0
330
1AF
100
AcDbEntity
  8
Sketch Geometry(ISO)
  6
Continuous
370
    35
100
AcDbLine
 10
1.566753102468823
 20
0.2900152046613691
 30
0.0
 11
-1.343376961700819
 21
0.2900152046613691
 31
0.0
  0
LINE
  5
1C1
330
1AF
100
AcDbEntity
  8
Sketch Geometry(ISO)
  6
Continuous
370
    35
100
AcDbLine
 10
-1.343376961700819
 20
0.2900152046613691
 30
0.0
 11
-1.343376961700819
 21
2.307766729498368
 31
0.0
  0
LINE
  5
1C2
330
1AF
100
AcDbEntity
  8
Sketch Geometry(ISO)
  6
Continuous
370
    35
100
AcDbLine
 10
-0.6161808348845277
 20
0.2900152046613691
 30
0.0
 11
0.7865007751001764
 21
0.2900152046613691
 31
0.0
  0
LINE
  5
1C3
330
1AF
100
AcDbEntity
  8
Sketch Geometry(ISO)
  6
Continuous
370
    35
100
AcDbLine
 10
2.343366034663389
 20
-0.7935636364266152
 30
0.0
 11
2.343366034663389
 21
-2.913925716906539
 31
0.0
  0
LINE
  5
1C4
330
1AF
100
AcDbEntity
  8
Sketch Geometry(ISO)
  6
Continuous
370
    35
100
AcDbLine
 10
2.343366034663389
 20
-2.913925716906539
 30
0.0
 11
-2.119989893895386
 21
-2.913925716906539
 31
0.0
  0
LINE
  5
1C5
330
1AF
100
AcDbEntity
  8
Sketch Geometry(ISO)
  6
Continuous
370
    35
100
AcDbLine
 10
-2.119989893895386
 20
-2.913925716906539
 30
0.0
 11
-2.119989893895386
 21
-0.7935636364266152
 31
0.0
  0
LINE
  5
1C6
330
1AF
100
AcDbEntity
  8
Sketch Geometry(ISO)
  6
Continuous
370
    35
100
AcDbLine
 10
-1.692679318753248
 20
-2.913925716906539
 30
0.0
 11
1.916055459521253
 21
-2.913925716906539
 31
0.0
  0
LINE
  5
1C7
330
1AF
100
AcDbEntity
  8
Sketch Geometry(ISO)
  6
Continuous
370
    35
100
AcDbLine
 10
1.916055459521253
 20
-2.913925716906539
 30
0.0
 11
1.916055459521253
 21
-3.902796868613903
 31
0.0
  0
LINE
  5
1C8
330
1AF
100
AcDbEntity
  8
Sketch Geometry(ISO)
  6
Continuous
370
    35
100
AcDbLine
 10
1.916055459521253
 20
-3.902796868613903
 30
0.0
 11
-1.692679318753248
 21
-3.902796868613903
 31
0.0
  0
LINE
  5
1C9
330
1AF
100
AcDbEntity
  8
Sketch Geometry(ISO)
  6
Continuous
370
    35
100
AcDbLine
 10
-1.692679318753248
 20
-3.902796868613903
 30
0.0
 11
-1.692679318753248
 21
-2.913925716906539
 31
0.0
  0
LINE
  5
1CA
330
1AF
100
AcDbEntity
  8
Sketch Geometry(ISO)
  6
Continuous
370
    35
100
AcDbLine
 10
-1.117812630971605
 20
-3.902796868613903
 30
0.0
 11
1.341188771739609
 21
-3.902796868613903
 31
0.0
  0
LINE
  5
1CB
330
1AF
100
AcDbEntity
  8
Sketch Geometry(ISO)
  6
Continuous
370
    35
100
AcDbLine
 10
1.341188771739609
 20
-3.902796868613903
 30
0.0
 11
1.341188771739609
 21
-4.322721763137558
 31
0.0
  0
LINE
  5
1CC
330
1AF
100
AcDbEntity
  8
Sketch Geometry(ISO)
  6
Continuous
370
    35
100
AcDbLine
 10
1.341188771739609
 20
-4.322721763137558
 30
0.0
 11
-1.117812630971605
 21
-4.322721763137558
 31
0.0
  0
LINE
  5
1CD
330
1AF
100
AcDbEntity
  8
Sketch Geometry(ISO)
  6
Continuous
370
    35
100
AcDbLine
 10
-1.117812630971605
 20
-4.322721763137558
 30
0.0
 11
-1.117812630971605
 21
-3.902796868613903
 31
0.0
  0
LINE
  5
1CE
330
1AF
100
AcDbEntity
  8
Sketch Geometry(ISO)
  6
Continuous
370
    35
100
AcDbLine
 10
-0.3156326869192938
 20
-4.322721763137558
 30
0.0
 11
0.4859526271349425
 21
-4.322721763137558
 31
0.0
  0
LINE
  5
1CF
330
1AF
100
AcDbEntity
  8
Sketch Geometry(ISO)
  6
Continuous
370
    35
100
AcDbLine
 10
2.042817886698137
 20
-4.522721763137552
 30
0.0
 11
2.042817886698137
 21
-5.500053546388396
 31
0.0
  0
LINE
  5
1D0
330
1AF
100
AcDbEntity
  8
Sketch Geometry(ISO)
  6
Continuous
370
    35
100
AcDbLine
 10
2.042817886698137
 20
-5.500053546388396
 30
0.0
 11
-1.819441745930133
 21
-5.500053546388396
 31
0.0
  0
LINE
  5
1D1
330
1AF
100
AcDbEntity
  8
Sketch Geometry(ISO)
  6
Continuous
370
    35
100
AcDbLine
 10
-1.819441745930133
 20
-5.500053546388396
 30
0.0
 11
-1.819441745930133
 21
-4.522721763137552
 31
0.0
  0
CIRCLE
  5
1D2
330
1AF
100
AcDbEntity
  8
Sketch Geometry(ISO)
  6
Continuous
370
    35
100
AcDbCircle
 10
0.1116880703840017
 20
-1.32120806588709
 30
0.0
 40
1.189962382282592
  0
LINE
  5
1D3
330
1AF
100
AcDbEntity
  8
Sketch Geometry(ISO)
  6
Continuous
370
    35
100
AcDbLine
 10
-0.1074039571481045
 20
-0.1515888309565305
 30
0.0
 11
-0.1074039571480867
 21
-2.490827300817651
 31
0.0
  0
LINE
  5
1D4
330
1AF
100
AcDbEntity
  8
Sketch Geometry(ISO)
  6
Continuous
370
    35
100
AcDbLine
 10
0.330780097916108
 20
-0.1515888309565305
 30
0.0
 11
0.3307800979160902
 21
-2.490827300817651
 31
0.0
  0
LINE
  5
1D5
330
1AF
100
AcDbEntity
  8
Sketch Geometry(ISO)
  6
Continuous
370
    35
100
AcDbLine
 10
-2.119989893895386
 20
-0.9802812822072404
 30
0.0
 11
-2.343366034663406
 21
-0.9802812822072404
 31
0.0
  0
LINE
  5
1D6
330
1AF
100
AcDbEntity
  8
Sketch Geometry(ISO)
  6
Continuous
370
    35
100
AcDbLine
 10
-2.343366034663406
 20
-0.9802812822072404
 30
0.0
 11
-2.343366034663406
 21
-2.561316285565772
 31
0.0
  0
LINE
  5
1D7
330
1AF
100
AcDbEntity
  8
Sketch Geometry(ISO)
  6
Continuous
370
    35
100
AcDbLine
 10
-2.343366034663406
 20
-2.561316285565772
 30
0.0
 11
-2.119989893895386
 21
-2.561316285565772
 31
0.0
  0
CIRCLE
  5
1D8
330
1AF
100
AcDbEntity
  8
Sketch Geometry(ISO)
370
    35
100
AcDbCircle
 10
0.1116880703840017
 20
4.233448017976026
 30
0.0
 40
1.266605528412369
  0
LINE
  5
1D9
330
1AF
100
AcDbEntity
  8
Sketch Geometry(ISO)
  6
Continuous
370
    35
100
AcDbLine
 10
2.343366034663389
 20
-0.7935636364266152
 30
0.0
 11
2.343366034663389
 21
0.2900152046613691
 31
0.0
  0
LINE
  5
1DA
330
1AF
100
AcDbEntity
  8
Sketch Geometry(ISO)
  6
Continuous
370
    35
100
AcDbLine
 10
2.343366034663389
 20
0.2900152046613691
 30
0.0
 11
-2.119989893895386
 21
0.2900152046613691
 31
0.0
  0
LINE
  5
1DB
330
1AF
100
AcDbEntity
  8
Sketch Geometry(ISO)
  6
Continuous
370
    35
100
AcDbLine
 10
-2.119989893895386
 20
0.2900152046613691
 30
0.0
 11
-2.119989893895386
 21
-0.7935636364266152
 31
0.0
  0
LINE
  5
1DC
330
1AF
100
AcDbEntity
  8
Sketch Geometry(ISO)
  6
Continuous
370
    35
100
AcDbLine
 10
1.842817886698141
 20
-4.322721763137558
 30
0.0
 11
-1.619441745930139
 21
-4.322721763137558
 31
0.0
  0
ARC
  5
1DD
330
1AF
100
AcDbEntity
  8
Sketch Geometry(ISO)
370
    35
100
AcDbCircle
 10
-1.619441745930139
 20
-4.522721763137552
 30
0.0
 40
0.1999999999999957
100
AcDbArc
 50
90.0
 51
180.0
  0
ARC
  5
1DE
330
1AF
100
AcDbEntity
  8
Sketch Geometry(ISO)
370
    35
100
AcDbCircle
 10
1.842817886698141
 20
-4.522721763137552
 30
0.0
 40
0.1999999999999957
100
AcDbArc
 50
0.0
 51
90.0
  0
ENDBLK
  5
1B1
330
1AF
100
AcDbEntity
  8
0
100
AcDbBlockEnd
  0
BLOCK
  5
1E0
330
1DF
100
AcDbEntity
  8
0
100
AcDbBlockBegin
  2
Title Blocks WS-Marketing-FUN
 70
     2
 10
0.0
 20
0.0
 30
0.0
  3
Title Blocks WS-Marketing-FUN
  1

  0
LINE
  5
441
330
1DF
100
AcDbEntity
  8
Visible Edges(DIN)
100
AcDbLine
 10
89.59999999999997
 20
100.2741925130958
 30
0.0
 11
289.6
 21
100.2741925130958
 31
0.0
  0
LINE
  5
442
330
1DF
100
AcDbEntity
  8
Visible Edges(DIN)
100
AcDbLine
 10
289.6
 20
100.2741925130958
 30
0.0
 11
289.6
 21
146.0241925130958
 31
0.0
  0
LINE
  5
443
330
1DF
100
AcDbEntity
  8
Visible Edges(DIN)
100
AcDbLine
 10
289.6
 20
146.0241925130958
 30
0.0
 11
89.59999999999999
 21
146.0241925130958
 31
0.0
  0
LINE
  5
444
330
1DF
100
AcDbEntity
  8
Visible Edges(DIN)
100
AcDbLine
 10
89.59999999999999
 20
146.0241925130958
 30
0.0
 11
89.59999999999997
 21
100.2741925130958
 31
0.0
  0
LINE
  5
445
330
1DF
100
AcDbEntity
  8
Visible Edges(DIN)
100
AcDbLine
 10
154.6
 20
100.2741925130958
 30
0.0
 11
154.6
 21
146.0241925130958
 31
0.0
  0
LINE
  5
446
330
1DF
100
AcDbEntity
  8
Visible Edges(DIN)
100
AcDbLine
 10
204.6
 20
100.2741925130958
 30
0.0
 11
204.6
 21
146.0241925130958
 31
0.0
  0
LINE
  5
447
330
1DF
100
AcDbEntity
  8
Sketch Geometry(ISO)
  6
Continuous
 62
     7
370
    25
100
AcDbLine
 10
109.6
 20
131.0241925130958
 30
0.0
 11
109.6
 21
146.0241925130958
 31
0.0
  0
LINE
  5
448
330
1DF
100
AcDbEntity
  8
Sketch Geometry(ISO)
  6
Continuous
 62
     7
370
    25
100
AcDbLine
 10
89.59999999999999
 20
138.5241925130958
 30
0.0
 11
154.6
 21
138.5241925130958
 31
0.0
  0
LINE
  5
449
330
1DF
100
AcDbEntity
  8
Sketch Geometry(ISO)
  6
Continuous
 62
     7
370
    25
100
AcDbLine
 10
89.59999999999999
 20
131.0241925130958
 30
0.0
 11
154.6
 21
131.0241925130958
 31
0.0
  0
LINE
  5
44A
330
1DF
100
AcDbEntity
  8
Sketch Geometry(ISO)
  6
Continuous
 62
     7
370
    25
100
AcDbLine
 10
289.6
 20
110.2741925130957
 30
0.0
 11
204.6
 21
110.2741925130957
 31
0.0
  0
LINE
  5
44B
330
1DF
100
AcDbEntity
  8
Sketch Geometry(ISO)
  6
Continuous
 62
     7
370
    25
100
AcDbLine
 10
216.6
 20
100.2741925130958
 30
0.0
 11
216.6
 21
110.2741925130957
 31
0.0
  0
LINE
  5
44C
330
1DF
100
AcDbEntity
  8
Sketch Geometry(ISO)
  6
Continuous
 62
     7
370
    25
100
AcDbLine
 10
282.1
 20
110.2741925130957
 30
0.0
 11
282.1
 21
100.2741925130958
 31
0.0
  0
LINE
  5
44D
330
1DF
100
AcDbEntity
  8
Sketch Geometry(ISO)
  6
Continuous
 62
     7
370
    25
100
AcDbLine
 10
274.6
 20
110.2741925130957
 30
0.0
 11
274.6
 21
100.2741925130958
 31
0.0
  0
LINE
  5
44E
330
1DF
100
AcDbEntity
  8
Sketch Geometry(ISO)
  6
Continuous
 62
     7
370
    25
100
AcDbLine
 10
220.7048524866916
 20
143.6616925130957
 30
0.0
 11
226.2048524866916
 21
144.4616925130956
 31
0.0
  0
LINE
  5
44F
330
1DF
100
AcDbEntity
  8
Centerline(ISO)
  6
Continuous
 62
     7
370
    18
100
AcDbLine
 10
227.2048524866917
 20
142.4616925130957
 30
0.0
 11
219.7048524866915
 21
142.4616925130957
 31
0.0
  0
LINE
  5
450
330
1DF
100
AcDbEntity
  8
Sketch Geometry(ISO)
  6
Continuous
 62
     7
370
    25
100
AcDbLine
 10
220.7048524866916
 20
143.6616925130957
 30
0.0
 11
220.7048524866916
 21
141.2616925130957
 31
0.0
  0
LINE
  5
451
330
1DF
100
AcDbEntity
  8
Sketch Geometry(ISO)
  6
Continuous
 62
     7
370
    25
100
AcDbLine
 10
220.7048524866916
 20
141.2616925130957
 30
0.0
 11
226.2048524866916
 21
140.4616925130957
 31
0.0
  0
LINE
  5
452
330
1DF
100
AcDbEntity
  8
Centerline(ISO)
  6
Continuous
 62
     7
370
    18
100
AcDbLine
 10
227.7048524866915
 20
142.4616925130957
 30
0.0
 11
233.7048524866915
 21
142.4616925130957
 31
0.0
  0
LINE
  5
453
330
1DF
100
AcDbEntity
  8
Sketch Geometry(ISO)
  6
Continuous
 62
     7
370
    25
100
AcDbLine
 10
226.2048524866916
 20
144.4616925130956
 30
0.0
 11
226.2048524866916
 21
140.4616925130957
 31
0.0
  0
CIRCLE
  5
454
330
1DF
100
AcDbEntity
  8
Sketch Geometry(ISO)
  6
Continuous
 62
     7
370
    25
100
AcDbCircle
 10
230.7048524866915
 20
142.4616925130957
 30
0.0
 40
1.199999999999999
  0
LINE
  5
455
330
1DF
100
AcDbEntity
  8
Centerline(ISO)
  6
Continuous
 62
     7
370
    18
100
AcDbLine
 10
230.7048524866914
 20
145.4616925130956
 30
0.0
 11
230.7048524866914
 21
139.4616925130957
 31
0.0
  0
CIRCLE
  5
456
330
1DF
100
AcDbEntity
  8
Sketch Geometry(ISO)
  6
Continuous
 62
     7
370
    25
100
AcDbCircle
 10
230.7048524866915
 20
142.4616925130957
 30
0.0
 40
2.0
  0
LINE
  5
457
330
1DF
100
AcDbEntity
  8
Sketch Geometry(ISO)
  6
Continuous
 62
     7
370
    25
100
AcDbLine
 10
134.6
 20
131.0241925130958
 30
0.0
 11
134.6
 21
146.0241925130958
 31
0.0
  0
LINE
  5
458
330
1DF
100
AcDbEntity
  8
Sketch Geometry(ISO)
  6
Continuous
 62
     7
370
    35
100
AcDbLine
 10
204.6
 20
138.5241925130958
 30
0.0
 11
289.6
 21
138.5241925130958
 31
0.0
  0
LINE
  5
459
330
1DF
100
AcDbEntity
  8
Sketch Geometry(ISO)
  6
Continuous
 62
     7
370
    25
100
AcDbLine
 10
204.6
 20
131.0241925130958
 30
0.0
 11
289.6
 21
131.0241925130958
 31
0.0
  0
LINE
  5
45A
330
1DF
100
AcDbEntity
  8
Sketch Geometry(ISO)
  6
Continuous
 62
     7
370
    25
100
AcDbLine
 10
247.1
 20
146.0241925130956
 30
0.0
 11
247.1
 21
131.0241925130958
 31
0.0
  0
LINE
  5
45B
330
1DF
100
AcDbEntity
  8
Sketch Geometry(ISO)
  6
Continuous
 62
     7
370
    25
100
AcDbLine
 10
263.6
 20
110.2741925130957
 30
0.0
 11
263.6
 21
100.2741925130958
 31
0.0
  0
LINE
  5
520
330
1DF
100
AcDbEntity
  8
Sketch Geometry(ISO)
  6
Continuous
 62
     7
370
    25
100
AcDbLine
 10
89.59999999999999
 20
110.2741925130958
 30
0.0
 11
154.6
 21
110.2741925130957
 31
0.0
  0
MTEXT
  5
521
330
1DF
100
AcDbEntity
  8
Symbols(ISO)
 62
     7
100
AcDbMText
 10
155.6
 20
144.5241925130958
 30
0.0
 40
1.49859994649887
 41
23.77876622243585
 71
     4
 72
     1
  1
Revision Description:
  7
Text__1.5mm
 73
     1
 44
1.0
1001
ACAD
1000
MTEXTBEGIN
1070
    73
1070
     1
1070
    44
1040
1.0
1070
    74
1070
     0
1000
MTEXTEND
  0
MTEXT
  5
523
330
1DF
100
AcDbEntity
  8
Symbols(ISO)
 62
     7
100
AcDbMText
 10
264.6
 20
108.7741925130957
 30
0.0
 40
1.49859994649887
 41
6.687050822926429
 71
     4
 72
     1
  1
\fArial|b0|i0;Rev.
  7
Text__1.5mm
 73
     1
 44
1.0
1001
ACAD
1000
MTEXTBEGIN
1070
    73
1070
     1
1070
    44
1040
1.0
1070
    74
1070
     0
1000
MTEXTEND
  0
MTEXT
  5
524
330
1DF
100
AcDbEntity
  8
Symbols(ISO)
 62
     7
100
AcDbMText
 10
275.6
 20
108.7741925130957
 30
0.0
 40
1.49859994649887
 41
6.687050822926429
 71
     4
 72
     1
  1
\fArial|b0|i0;Sheet
  7
Text__1.5mm
 73
     1
 44
1.0
1001
ACAD
1000
MTEXTBEGIN
1070
    73
1070
     1
1070
    44
1040
1.0
1070
    74
1070
     0
1000
MTEXTEND
  0
MTEXT
  5
525
330
1DF
100
AcDbEntity
  8
Symbols(ISO)
 62
     7
100
AcDbMText
 10
205.6
 20
108.7741925130957
 30
0.0
 40
1.49859994649887
 41
6.629477143287657
 71
     4
 72
     1
  1
\fArial|b0|i0;Format
  7
Text__1.5mm
 73
     1
 44
1.0
1001
ACAD
1000
MTEXTBEGIN
1070
    73
1070
     1
1070
    44
1040
1.0
1070
    74
1070
     0
1000
MTEXTEND
  0
MTEXT
  5
526
330
1DF
100
AcDbEntity
  8
Symbols(ISO)
 62
     7
100
AcDbMText
 10
248.1
 20
137.0241925130958
 30
0.0
 40
1.49859994649887
 41
9.419934749603273
 71
     4
 72
     1
  1
EAN / UPC
  7
Text__1.5mm
 73
     1
 44
1.0
1001
ACAD
1000
MTEXTBEGIN
1070
    73
1070
     1
1070
    44
1040
1.0
1070
    74
1070
     0
1000
MTEXTEND
  0
MTEXT
  5
527
330
1DF
100
AcDbEntity
  8
Symbols(ISO)
 62
     7
100
AcDbMText
 10
205.6
 20
144.3687682948396
 30
0.0
 40
1.49859994649887
 41
8.959617614746091
 71
     4
 72
     1
  1
Projection
  7
Text__1.5mm
 73
     1
 44
1.0
1001
ACAD
1000
MTEXTBEGIN
1070
    73
1070
     1
1070
    44
1040
1.0
1070
    74
1070
     0
1000
MTEXTEND
  0
MTEXT
  5
528
330
1DF
100
AcDbEntity
  8
Symbols(ISO)
 62
     7
100
AcDbMText
 10
248.1
 20
144.3687682948396
 30
0.0
 40
1.49859994649887
 41
41.00067758866361
 71
     4
 72
     1
  1
Local part number (producing site)
  7
Text__1.5mm
 73
     1
 44
1.0
1001
ACAD
1000
MTEXTBEGIN
1070
    73
1070
     1
1070
    44
1040
1.0
1070
    74
1070
     0
1000
MTEXTEND
  0
MTEXT
  5
529
330
1DF
100
AcDbEntity
  8
Symbols(ISO)
 62
     7
100
AcDbMText
 10
218.1
 20
108.7741925130957
 30
0.0
 40
1.49859994649887
 41
13.84170077910116
 71
     4
 72
     1
  1
Drawing number
  7
Text__1.5mm
 73
     1
 44
1.0
1001
ACAD
1000
MTEXTBEGIN
1070
    73
1070
     1
1070
    44
1040
1.0
1070
    74
1070
     0
1000
MTEXTEND
  0
MTEXT
  5
52A
330
1DF
100
AcDbEntity
  8
Symbols(ISO)
 62
     7
100
AcDbMText
 10
205.6
 20
137.0241925130958
 30
0.0
 40
1.49859994649887
 41
16.71329739486093
 71
     4
 72
     1
  1
WS global number
  7
Text__1.5mm
 73
     1
 44
1.0
1001
ACAD
1000
MTEXTBEGIN
1070
    73
1070
     1
1070
    44
1040
1.0
1070
    74
1070
     0
1000
MTEXTEND
  0
MTEXT
  5
52B
330
1DF
100
AcDbEntity
  8
Symbols(ISO)
 62
     7
100
AcDbMText
 10
283.1
 20
108.7741925130957
 30
0.0
 40
1.49859994649887
 41
6.687050822926429
 71
     4
 72
     1
  1
Sheets
  7
Text__1.5mm
 73
     1
 44
1.0
1001
ACAD
1000
MTEXTBEGIN
1070
    73
1070
     1
1070
    44
1040
1.0
1070
    74
1070
     0
1000
MTEXTEND
  0
MTEXT
  5
52D
330
1DF
100
AcDbEntity
  8
Symbols(ISO)
 62
     7
100
AcDbMText
 10
90.6
 20
144.5241925130958
 30
0.0
 40
1.49859994649887
 41
8.959617614746091
 71
     4
 72
     1
  1
Drawn by
  7
Text__1.5mm
 73
     1
 44
1.0
1001
ACAD
1000
MTEXTBEGIN
1070
    73
1070
     1
1070
    44
1040
1.0
1070
    74
1070
     0
1000
MTEXTEND
  0
MTEXT
  5
52E
330
1DF
100
AcDbEntity
  8
Symbols(ISO)
 62
     7
100
AcDbMText
 10
90.6
 20
137.0241925130958
 30
0.0
 40
1.49859994649887
 41
9.318276643753053
 71
     4
 72
     1
  1
Revised by
  7
Text__1.5mm
 73
     1
 44
1.0
1001
ACAD
1000
MTEXTBEGIN
1070
    73
1070
     1
1070
    44
1040
1.0
1070
    74
1070
     0
1000
MTEXTEND
  0
MTEXT
  5
52F
330
1DF
100
AcDbEntity
  8
Symbols(ISO)
 62
     7
100
AcDbMText
 10
135.6
 20
137.0241925130958
 30
0.0
 40
1.49859994649887
 41
12.0866436953507
 71
     4
 72
     1
  1
Revision date
  7
Text__1.5mm
 73
     1
 44
1.0
1001
ACAD
1000
MTEXTBEGIN
1070
    73
1070
     1
1070
    44
1040
1.0
1070
    74
1070
     0
1000
MTEXTEND
  0
MTEXT
  5
530
330
1DF
100
AcDbEntity
  8
Symbols(ISO)
 62
     7
100
AcDbMText
 10
135.6
 20
144.5241925130958
 30
0.0
 40
1.49859994649887
 41
12.73810746214334
 71
     4
 72
     1
  1
Creation date
  7
Text__1.5mm
 73
     1
 44
1.0
1001
ACAD
1000
MTEXTBEGIN
1070
    73
1070
     1
1070
    44
1040
1.0
1070
    74
1070
     0
1000
MTEXTEND
  0
MTEXT
  5
531
330
1DF
100
AcDbEntity
  8
Symbols(ISO)
 62
     7
100
AcDbMText
 10
110.6
 20
144.5241925130958
 30
0.0
 40
1.49859994649887
 41
10.88769435882568
 71
     4
 72
     1
  1
Departement
  7
Text__1.5mm
 73
     1
 44
1.0
1001
ACAD
1000
MTEXTBEGIN
1070
    73
1070
     1
1070
    44
1040
1.0
1070
    74
1070
     0
1000
MTEXTEND
  0
MTEXT
  5
532
330
1DF
100
AcDbEntity
  8
Symbols(ISO)
 62
     7
100
AcDbMText
 10
110.6
 20
137.0241925130958
 30
0.0
 40
1.49859994649887
 41
13.53864551460898
 71
     4
 72
     1
  1
Departement
  7
Text__1.5mm
 73
     1
 44
1.0
1001
ACAD
1000
MTEXTBEGIN
1070
    73
1070
     1
1070
    44
1040
1.0
1070
    74
1070
     0
1000
MTEXTEND
  0
ATTDEF
  5
533
102
{ACAD_XDICTIONARY
360
534
102
}
330
1DF
100
AcDbEntity
  8
Symbols(ISO)
 62
     7
100
AcDbText
 10
206.2862210095498
 20
123.525897833696
 30
0.0
 40
5.0
  1
Siebablaufventil DN 32
  7
Text Style20
100
AcDbAttributeDefinition
  3
Title
  2
Title_001
 70
     0
  0
ATTDEF
  5
535
102
{ACAD_XDICTIONARY
360
536
102
}
330
1DF
100
AcDbEntity
  8
Symbols(ISO)
 62
     7
100
AcDbText
 10
206.5021145992114
 20
117.7968733064955
 30
0.0
 40
3.499999940395355
  1
ZANMW901
  7
Text Style9
100
AcDbAttributeDefinition
  3
Auxiliary_Remark1
  2
Auxiliary_Remark1_001
 70
     0
  0
ATTDEF
  5
537
102
{ACAD_XDICTIONARY
360
538
102
}
330
1DF
100
AcDbEntity
  8
Symbols(ISO)
 62
     7
100
AcDbText
 10
206.2371077824419
 20
111.7886877592386
 30
0.0
 40
3.499999940395355
  1
Marketingzeichnung
  7
Text Style9
100
AcDbAttributeDefinition
  3
Auxiliary_Remark2
  2
Auxiliary_Remark2_001
 70
     0
  0
ATTDEF
  5
539
102
{ACAD_XDICTIONARY
360
53A
102
}
330
1DF
100
AcDbEntity
  8
Symbols(ISO)
 62
     7
100
AcDbText
 10
247.7197135061392
 20
139.7903930587984
 30
0.0
 40
2.5
  1
11002099
  7
Text Style38
100
AcDbAttributeDefinition
  3
Part_number
  2
Part_number_001
 70
     0
  0
ATTDEF
  5
53B
102
{ACAD_XDICTIONARY
360
53C
102
}
330
1DF
100
AcDbEntity
  8
Symbols(ISO)
 62
     7
100
AcDbText
 10
217.8100954979536
 20
101.8082989251011
 30
0.0
 40
5.0
  1
0222-232513
  7
Text Style20
100
AcDbAttributeDefinition
  3
Document_Number
  2
Document_Number_001
 70
     0
  0
ATTDEF
  5
53D
102
{ACAD_XDICTIONARY
360
53E
102
}
330
1DF
100
AcDbEntity
  8
Symbols(ISO)
 62
     7
100
AcDbText
 10
155.6
 20
136.0241924832935
 30
0.0
 40
2.000000029802321
  1

  7
Text Style40
 11
155.6
 21
138.0241925130958
 31
0.0
100
AcDbAttributeDefinition
  3
Revision_Memo_1
  2
Revision_Memo_1
 70
     0
 74
     3
  0
ATTDEF
  5
53F
102
{ACAD_XDICTIONARY
360
540
102
}
330
1DF
100
AcDbEntity
  8
Symbols(ISO)
 62
     7
100
AcDbText
 10
264.6
 20
101.7741925130957
 30
0.0
 40
5.0
  1
A
  7
Text Style20
100
AcDbAttributeDefinition
  3
Revision_Index_1
  2
Revision_Index_1_001
 70
     0
  0
ATTDEF
  5
541
102
{ACAD_XDICTIONARY
360
542
102
}
330
1DF
100
AcDbEntity
  8
Symbols(ISO)
 62
     7
100
AcDbText
 10
205.6
 20
101.7741925130957
 30
0.0
 40
5.0
  1
A4
  7
Text Style20
100
AcDbAttributeDefinition
  3
Sheet Size
  2
Sheet_Size_001
 70
     0
  0
ATTDEF
  5
543
102
{ACAD_XDICTIONARY
360
544
102
}
330
1DF
100
AcDbEntity
  8
Symbols(ISO)
 62
     7
100
AcDbText
 10
90.37626193391025
 20
140.0405635762012
 30
0.0
 40
2.000000029802321
  1
Haken
  7
Text Style40
100
AcDbAttributeDefinition
  3
Drawn_By
  2
Drawn_By_001
 70
     0
  0
ATTDEF
  5
545
102
{ACAD_XDICTIONARY
360
546
102
}
330
1DF
100
AcDbEntity
  8
Symbols(ISO)
 62
     7
100
AcDbText
 10
90.6
 20
132.5241924981946
 30
0.0
 40
2.000000029802321
  1

  7
Text Style40
 11
90.6
 21
133.5241925130958
 31
0.0
100
AcDbAttributeDefinition
  3
Modified_By
  2
Modified_By
 70
     0
 74
     2
  0
ATTDEF
  5
547
102
{ACAD_XDICTIONARY
360
548
102
}
330
1DF
100
AcDbEntity
  8
Symbols(ISO)
 62
     7
100
AcDbText
 10
135.4840381974535
 20
140.0371529349498
 30
0.0
 40
2.000000029802321
  1
04.08.2011
  7
Text Style40
100
AcDbAttributeDefinition
  3
Drawn_Date
  2
Drawn_Date_001
 70
     0
  0
ATTDEF
  5
549
102
{ACAD_XDICTIONARY
360
54A
102
}
330
1DF
100
AcDbEntity
  8
Symbols(ISO)
 62
     7
100
AcDbText
 10
135.6
 20
132.5241924981946
 30
0.0
 40
2.000000029802321
  1

  7
Text Style40
 11
135.6
 21
133.5241925130958
 31
0.0
100
AcDbAttributeDefinition
  3
Modified_Date
  2
Modified_Date
 70
     0
 74
     2
  0
ATTDEF
  5
54B
102
{ACAD_XDICTIONARY
360
54C
102
}
330
1DF
100
AcDbEntity
  8
Symbols(ISO)
 62
     7
100
AcDbText
 10
155.6
 20
140.0241924981946
 30
0.0
 40
2.000000029802321
  1

  7
Text Style40
 11
155.6
 21
141.0241925130958
 31
0.0
100
AcDbAttributeDefinition
  3
Revision_Titel_1
  2
Revision_Titel_1
 70
     0
 74
     2
  0
ATTDEF
  5
54D
102
{ACAD_XDICTIONARY
360
54E
102
}
330
1DF
100
AcDbEntity
  8
Symbols(ISO)
 62
     7
100
AcDbText
 10
276.5972714870396
 20
101.8168255281025
 30
0.0
 40
5.0
  1
5
 41
0.9
  7
Text__5.0mm
100
AcDbAttributeDefinition
  3
Sheet number
  2
Sheet_number_001
 70
     0
  0
ATTDEF
  5
54F
102
{ACAD_XDICTIONARY
360
550
102
}
330
1DF
100
AcDbEntity
  8
Symbols(ISO)
 62
     7
100
AcDbText
 10
284.0972714870396
 20
101.8168255281025
 30
0.0
 40
5.0
  1
5
 41
0.9
  7
Text__5.0mm
100
AcDbAttributeDefinition
  3
Number of sheets
  2
Number_of_sheets_001
 70
     0
  0
ATTDEF
  5
551
102
{ACAD_XDICTIONARY
360
552
102
}
330
1DF
100
AcDbEntity
  8
Symbols(ISO)
 62
     7
100
AcDbText
 10
205.6
 20
132.2741925130958
 30
0.0
 40
2.5
  1

  7
Text Style38
 11
205.6
 21
133.5241925130958
 31
0.0
100
AcDbAttributeDefinition
  3
FUN
  2
FUN
 70
     0
 74
     2
  0
ATTDEF
  5
553
102
{ACAD_XDICTIONARY
360
554
102
}
330
1DF
100
AcDbEntity
  8
Symbols(ISO)
 62
     7
100
AcDbText
 10
247.9345839017735
 20
132.2903930587984
 30
0.0
 40
2.5
  1
7612982100178
  7
Text Style38
100
AcDbAttributeDefinition
  3
EAN
  2
EAN_001
 70
     0
  0
ATTDEF
  5
555
102
{ACAD_XDICTIONARY
360
556
102
}
330
1DF
100
AcDbEntity
  8
Symbols(ISO)
 62
     7
100
AcDbText
 10
110.370804907908
 20
132.8181897740626
 30
0.0
 40
2.000000029802321
  1
FAR-Marketing
  7
Text Style40
100
AcDbAttributeDefinition
  3
Departement
  2
Departement_001
 70
     0
  0
ATTDEF
  5
557
102
{ACAD_XDICTIONARY
360
558
102
}
330
1DF
100
AcDbEntity
  8
Symbols(ISO)
 62
     7
100
AcDbText
 10
110.370804907908
 20
140.3181897740626
 30
0.0
 40
2.000000029802321
  1
FAR-Marketing
  7
Text Style40
100
AcDbAttributeDefinition
  3
Departement
  2
Departement_001
 70
     0
  0
ENDBLK
  5
1E1
330
1DF
100
AcDbEntity
  8
0
100
AcDbBlockEnd
  0
BLOCK
  5
301
330
300
100
AcDbEntity
  8
0
100
AcDbBlockBegin
  2
Borders Planung Border
 70
     0
 10
0.0
 20
0.0
 30
0.0
  3
Borders Planung Border
  1

  0
LINE
  5
303
330
300
100
AcDbEntity
  8
Sketch Geometry(DIN)
100
AcDbLine
 10
4.999999999999946
 20
292.0
 30
0.0
 11
205.0
 21
292.0
 31
0.0
  0
LINE
  5
304
330
300
100
AcDbEntity
  8
Sketch Geometry(DIN)
100
AcDbLine
 10
205.0
 20
292.0
 30
0.0
 11
205.0
 21
5.0
 31
0.0
  0
LINE
  5
305
330
300
100
AcDbEntity
  8
Sketch Geometry(DIN)
100
AcDbLine
 10
205.0
 20
5.0
 30
0.0
 11
5.0
 21
4.999999999999974
 31
0.0
  0
LINE
  5
306
330
300
100
AcDbEntity
  8
Sketch Geometry(DIN)
100
AcDbLine
 10
4.999999999999981
 20
4.999999999999974
 30
0.0
 11
4.999999999999946
 21
292.0
 31
0.0
  0
ENDBLK
  5
302
330
300
100
AcDbEntity
  8
0
100
AcDbBlockEnd
  0
ENDSEC
  0
SECTION
  2
ENTITIES
  0
INSERT
  5
2EB
330
77
100
AcDbEntity
  8
0
100
AcDbBlockReference
 66
     1
  2
Title Blocks WS-Marketing-FUN
 10
-84.59999999999999
 20
-95.27419251309579
 30
0.0
  0
ATTRIB
  5
2ED
102
{ACAD_XDICTIONARY
360
3C2
102
}
330
2EB
100
AcDbEntity
  8
Symbols(ISO)
 62
     7
100
AcDbText
 10
121.6862210095498
 20
28.25170532060033
 30
0.0
 40
5.0
  1
Siebablaufventil DN 32
  7
Text Style20
100
AcDbAttribute
  2
Title_001
 70
     0
  0
ATTRIB
  5
2EE
102
{ACAD_XDICTIONARY
360
3C5
102
}
330
2EB
100
AcDbEntity
  8
Symbols(ISO)
 62
     7
100
AcDbText
 10
121.9021145992113
 20
22.52268079339974
 30
0.0
 40
3.499999940395355
  1
ZANMW901
  7
Text Style9
100
AcDbAttribute
  2
Auxiliary_Remark1_001
 70
     0
  0
ATTRIB
  5
2EF
102
{ACAD_XDICTIONARY
360
3C8
102
}
330
2EB
100
AcDbEntity
  8
Symbols(ISO)
 62
     7
100
AcDbText
 10
121.6371077824419
 20
16.51449524614289
 30
0.0
 40
3.499999940395355
  1
Marketingzeichnung
  7
Text Style9
100
AcDbAttribute
  2
Auxiliary_Remark2_001
 70
     0
  0
ATTRIB
  5
2F0
102
{ACAD_XDICTIONARY
360
3CB
102
}
330
2EB
100
AcDbEntity
  8
Symbols(ISO)
 62
     7
100
AcDbText
 10
163.1197135061391
 20
44.51620054570263
 30
0.0
 40
2.5
  1
11002099
  7
Text Style38
100
AcDbAttribute
  2
Part_number_001
 70
     0
  0
ATTRIB
  5
2F1
102
{ACAD_XDICTIONARY
360
3CE
102
}
330
2EB
100
AcDbEntity
  8
Symbols(ISO)
 62
     7
100
AcDbText
 10
133.2100954979535
 20
6.53410641200544
 30
0.0
 40
5.0
  1
0222-232513
  7
Text Style20
100
AcDbAttribute
  2
Document_Number_001
 70
     0
  0
ATTRIB
  5
2F2
102
{ACAD_XDICTIONARY
360
3D1
102
}
330
2EB
100
AcDbEntity
  8
Symbols(ISO)
 62
     7
100
AcDbText
 10
71.0
 20
40.74999997019769
 30
0.0
 40
2.000000029802321
  1

  7
Text Style40
 11
71.0
 21
42.75000000000002
 31
0.0
100
AcDbAttribute
  2
Revision_Memo_1
 70
     0
 74
     3
  0
ATTRIB
  5
2F3
102
{ACAD_XDICTIONARY
360
3D4
102
}
330
2EB
100
AcDbEntity
  8
Symbols(ISO)
 62
     7
100
AcDbText
 10
180.0
 20
6.499999999999932
 30
0.0
 40
5.0
  1
A
  7
Text Style20
100
AcDbAttribute
  2
Revision_Index_1_001
 70
     0
  0
ATTRIB
  5
2F4
102
{ACAD_XDICTIONARY
360
3D7
102
}
330
2EB
100
AcDbEntity
  8
Symbols(ISO)
 62
     7
100
AcDbText
 10
121.0
 20
6.499999999999984
 30
0.0
 40
5.0
  1
A4
  7
Text Style20
100
AcDbAttribute
  2
Sheet_Size_001
 70
     0
  0
ATTRIB
  5
2F5
102
{ACAD_XDICTIONARY
360
3DA
102
}
330
2EB
100
AcDbEntity
  8
Symbols(ISO)
 62
     7
100
AcDbText
 10
5.776261933910221
 20
44.76637106310543
 30
0.0
 40
2.000000029802321
  1
Haken
  7
Text Style40
100
AcDbAttribute
  2
Drawn_By_001
 70
     0
  0
ATTRIB
  5
2F6
102
{ACAD_XDICTIONARY
360
3DD
102
}
330
2EB
100
AcDbEntity
  8
Symbols(ISO)
 62
     7
100
AcDbText
 10
5.999999999999976
 20
37.2499999850989
 30
0.0
 40
2.000000029802321
  1

  7
Text Style40
 11
5.999999999999976
 21
38.25000000000006
 31
0.0
100
AcDbAttribute
  2
Modified_By
 70
     0
 74
     2
  0
ATTRIB
  5
2F7
102
{ACAD_XDICTIONARY
360
3E0
102
}
330
2EB
100
AcDbEntity
  8
Symbols(ISO)
 62
     7
100
AcDbText
 10
50.88403819745348
 20
44.76296042185407
 30
0.0
 40
2.000000029802321
  1
04.08.2011
  7
Text Style40
100
AcDbAttribute
  2
Drawn_Date_001
 70
     0
  0
ATTRIB
  5
2F8
102
{ACAD_XDICTIONARY
360
3E3
102
}
330
2EB
100
AcDbEntity
  8
Symbols(ISO)
 62
     7
100
AcDbText
 10
51.0
 20
37.2499999850989
 30
0.0
 40
2.000000029802321
  1

  7
Text Style40
 11
51.0
 21
38.25000000000006
 31
0.0
100
AcDbAttribute
  2
Modified_Date
 70
     0
 74
     2
  0
ATTRIB
  5
2F9
102
{ACAD_XDICTIONARY
360
3E6
102
}
330
2EB
100
AcDbEntity
  8
Symbols(ISO)
 62
     7
100
AcDbText
 10
71.0
 20
44.74999998509884
 30
0.0
 40
2.000000029802321
  1

  7
Text Style40
 11
71.0
 21
45.75000000000001
 31
0.0
100
AcDbAttribute
  2
Revision_Titel_1
 70
     0
 74
     2
  0
ATTRIB
  5
2FA
102
{ACAD_XDICTIONARY
360
3E9
102
}
330
2EB
100
AcDbEntity
  8
Symbols(ISO)
 62
     7
100
AcDbText
 10
191.9972714870396
 20
6.542633015006753
 30
0.0
 40
5.0
  1
5
 41
0.9
  7
Text__5.0mm
100
AcDbAttribute
  2
Sheet_number_001
 70
     0
  0
ATTRIB
  5
2FB
102
{ACAD_XDICTIONARY
360
3EC
102
}
330
2EB
100
AcDbEntity
  8
Symbols(ISO)
 62
     7
100
AcDbText
 10
199.4972714870396
 20
6.542633015006753
 30
0.0
 40
5.0
  1
5
 41
0.9
  7
Text__5.0mm
100
AcDbAttribute
  2
Number_of_sheets_001
 70
     0
  0
ATTRIB
  5
2FC
102
{ACAD_XDICTIONARY
360
3EF
102
}
330
2EB
100
AcDbEntity
  8
Symbols(ISO)
 62
     7
100
AcDbText
 10
121.0
 20
37.00000000000004
 30
0.0
 40
2.5
  1

  7
Text Style38
 11
121.0
 21
38.25000000000004
 31
0.0
100
AcDbAttribute
  2
FUN
 70
     0
 74
     2
  0
ATTRIB
  5
2FD
102
{ACAD_XDICTIONARY
360
3F2
102
}
330
2EB
100
AcDbEntity
  8
Symbols(ISO)
 62
     7
100
AcDbText
 10
163.3345839017735
 20
37.01620054570263
 30
0.0
 40
2.5
  1
7612982100178
  7
Text Style38
100
AcDbAttribute
  2
EAN_001
 70
     0
  0
ATTRIB
  5
2FE
102
{ACAD_XDICTIONARY
360
3F5
102
}
330
2EB
100
AcDbEntity
  8
Symbols(ISO)
 62
     7
100
AcDbText
 10
25.7926330119168
 20
37.54399726096684
 30
0.0
 40
2.000000029802321
  1
Marketing
  7
Text Style40
100
AcDbAttribute
  2
Departement_001
 70
     0
  0
ATTRIB
  5
2FF
102
{ACAD_XDICTIONARY
360
3F8
102
}
330
2EB
100
AcDbEntity
  8
Symbols(ISO)
 62
     7
100
AcDbText
 10
25.7926330119168
 20
45.04399726096681
 30
0.0
 40
2.000000029802321
  1
Marketing
  7
Text Style40
100
AcDbAttribute
  2
Departement_001
 70
     0
  0
SEQEND
  5
2EC
330
2EB
100
AcDbEntity
  8
0
  0
INSERT
  5
307
330
77
100
AcDbEntity
  8
0
100
AcDbBlockReference
  2
Borders Planung Border
 10
0.0
 20
0.0
 30
0.0
  0
LINE
  5
308
330
77
100
AcDbEntity
  8
MaSichtkante dünnFliese
100
AcDbLine
 10
116.0270192116472
 20
132.8876371114107
 30
0.0
 11
110.3545517796999
 21
136.1626377102149
 31
0.0
  0
LINE
  5
309
330
77
100
AcDbEntity
  8
MaSichtkante dünnFliese
100
AcDbLine
 10
110.8133909526139
 20
134.1705514743993
 30
0.0
 11
115.0639287994426
 21
131.7165023043321
 31
0.0
  0
SPLINE
  5
30A
330
77
100
AcDbEntity
  8
MaSichtkante
100
AcDbSpline
210
0.0
220
0.0
230
1.0
 70
     8
 71
     3
 72
    12
 73
     8
 74
     0
 42
0.000000001
 43
0.0000000001
 40
0.5576447840034521
 40
0.5576447840034521
 40
0.5576447840034521
 40
0.5576447840034521
 40
0.5894270563507691
 40
0.5894270563507691
 40
0.6497642846000602
 40
0.6497642846000602
 40
0.6552396830584019
 40
0.6552396830584019
 40
0.6552396830584019
 40
0.6552396830584019
 10
116.2452043466563
 20
132.4996432869009
 30
0.0
 10
116.2592533745346
 20
132.4295725699171
 30
0.0
 10
116.2668042788181
 20
132.3536611236208
 30
0.0
 10
116.2699614625852
 20
132.1255514752113
 30
0.0
 10
116.2478021836961
 20
131.945286510535
 30
0.0
 10
116.1907880681567
 20
131.7405190643491
 30
0.0
 10
116.1857936881167
 20
131.7234216910643
 30
0.0
 10
116.1805580223364
 20
131.7062840670905
 30
0.0
  0
LINE
  5
30B
330
77
100
AcDbEntity
  8
MaSichtkante dünnFliese
100
AcDbLine
 10
114.981502476428
 20
131.7088083617715
 30
0.0
 11
110.8479409644083
 21
134.0953212134479
 31
0.0
  0
LINE
  5
30C
330
77
100
AcDbEntity
  8
MaSichtkante dünnFliese
100
AcDbLine
 10
91.33750133771432
 20
134.0953212134479
 30
0.0
 11
87.2039398256946
 21
131.7088083617715
 31
0.0
  0
LINE
  5
30D
330
77
100
AcDbEntity
  8
MaSichtkante dünnFliese
100
AcDbLine
 10
87.12151350267964
 20
131.7165023043329
 30
0.0
 11
91.3720513495083
 21
134.1705514744001
 31
0.0
  0
SPLINE
  5
30E
330
77
100
AcDbEntity
  8
MaSichtkante
100
AcDbSpline
210
0.0
220
0.0
230
1.0
 70
     8
 71
     3
 72
    12
 73
     8
 74
     0
 42
0.000000001
 43
0.0000000001
 40
0.3045850872211815
 40
0.3045850872211815
 40
0.3045850872211815
 40
0.3045850872211815
 40
0.3100604856795242
 40
0.3100604856795242
 40
0.3703977139288153
 40
0.3703977139288153
 40
0.4021799862761573
 40
0.4021799862761573
 40
0.4021799862761573
 40
0.4021799862761573
 10
86.00488427978621
 20
131.7062840670905
 30
0.0
 10
85.99964861400597
 20
131.7234216910643
 30
0.0
 10
85.99465423396589
 20
131.7405190643491
 30
0.0
 10
85.93764011842656
 20
131.9452865105352
 30
0.0
 10
85.91548083953748
 20
132.1255514752113
 30
0.0
 10
85.91863802330456
 20
132.3536611236208
 30
0.0
 10
85.92618892758803
 20
132.4295725699172
 30
0.0
 10
85.94023795546638
 20
132.499643286901
 30
0.0
  0
LINE
  5
30F
330
77
100
AcDbEntity
  8
MaSichtkante dünnFliese
100
AcDbLine
 10
91.83089052242271
 20
136.1626377102149
 30
0.0
 11
86.15842309047549
 21
132.8876371114107
 31
0.0
  0
LINE
  5
310
330
77
100
AcDbEntity
  8
MaSichtkante
100
AcDbLine
 10
110.0699720468598
 20
137.1701993899402
 30
0.0
 11
116.6358737719764
 21
133.3793742614716
 31
0.0
  0
LINE
  5
311
330
77
100
AcDbEntity
  8
MaSichtkante
100
AcDbLine
 10
85.54956853014628
 20
133.3793742614716
 30
0.0
 11
92.11547025526279
 21
137.1701993899402
 31
0.0
  0
LINE
  5
312
330
77
100
AcDbEntity
  8
MaSichtkante
100
AcDbLine
 10
98.84272115106137
 20
149.5899986249861
 30
0.0
 11
98.84272115106137
 21
156.4037899936639
 31
0.0
  0
LINE
  5
313
330
77
100
AcDbEntity
  8
MaSichtkante
100
AcDbLine
 10
103.3427211510613
 20
156.4037899936639
 30
0.0
 11
103.3427211510613
 21
149.5899986249861
 31
0.0
  0
ARC
  5
314
330
77
100
AcDbEntity
  8
MaSichtkante
100
AcDbCircle
 10
101.0927211510613
 20
139.7551414011243
 30
0.0
 40
17.15312499873474
100
AcDbArc
 50
89.92004047477701
 51
90.07995952522412
  0
ARC
  5
315
330
77
100
AcDbEntity
  8
MaSichtkante
100
AcDbCircle
 10
101.0927211510613
 20
139.755141399859
 30
0.0
 40
16.80000000000005
100
AcDbArc
 50
334.4133958043594
 51
3.202028407543151
  0
ARC
  5
316
330
77
100
AcDbEntity
  8
MaSichtkante
100
AcDbCircle
 10
101.0927211510613
 20
139.755141399859
 30
0.0
 40
16.79999999999996
100
AcDbArc
 50
22.51225730674223
 51
54.63059983611469
  0
ARC
  5
317
330
77
100
AcDbEntity
  8
MaSichtkante
100
AcDbCircle
 10
101.0927211510613
 20
139.755141399859
 30
0.0
 40
16.80000000000005
100
AcDbArc
 50
73.9408287353138
 51
85.58660419564008
  0
ARC
  5
318
330
77
100
AcDbEntity
  8
MaSichtkante
100
AcDbCircle
 10
101.0927211510613
 20
139.755141399859
 30
0.0
 40
16.80000000000002
100
AcDbArc
 50
228.226543021028
 51
260.3448855504005
  0
ARC
  5
319
330
77
100
AcDbEntity
  8
MaSichtkante
100
AcDbCircle
 10
101.0927211510613
 20
139.755141399859
 30
0.0
 40
16.79999999999996
100
AcDbArc
 50
279.6551144495994
 51
311.773456978972
  0
ARC
  5
31A
330
77
100
AcDbEntity
  8
MaSichtkante
100
AcDbCircle
 10
101.0927211510613
 20
139.755141399859
 30
0.0
 40
16.80000000000001
100
AcDbArc
 50
94.41339580435984
 51
106.0591712646862
  0
ARC
  5
31B
330
77
100
AcDbEntity
  8
MaSichtkante
100
AcDbCircle
 10
101.0927211510613
 20
139.755141399859
 30
0.0
 40
16.80000000000001
100
AcDbArc
 50
125.3694001638852
 51
157.4877426932575
  0
ARC
  5
31C
330
77
100
AcDbEntity
  8
MaSichtkante
100
AcDbCircle
 10
101.0927211510613
 20
139.755141399859
 30
0.0
 40
16.79999999999998
100
AcDbArc
 50
176.7979715924566
 51
205.5866041956401
  0
SPLINE
  5
31D
330
77
100
AcDbEntity
  8
MaSichtkante
100
AcDbSpline
210
0.0
220
0.0
230
1.0
 70
     8
 71
     3
 72
    14
 73
    10
 74
     0
 42
0.000000001
 43
0.0000000001
 40
0.5576447840034268
 40
0.5576447840034268
 40
0.5576447840034268
 40
0.5576447840034268
 40
0.5894270563507691
 40
0.5894270563507691
 40
0.6497642846000603
 40
0.6497642846000603
 40
0.7101015128493515
 40
0.7101015128493515
 40
0.7102119783140627
 40
0.7102119783140627
 40
0.7102119783140627
 40
0.7102119783140627
 10
99.7999252361955
 20
156.50532583414
 30
0.0
 10
99.85358374322572
 20
156.5525280076731
 30
0.0
 10
99.91554953201465
 20
156.5970230057523
 30
0.0
 10
100.1115196905021
 20
156.7138120313037
 30
0.0
 10
100.2787133687685
 20
156.7847540151943
 30
0.0
 10
100.6561445110575
 20
156.8819499185286
 30
0.0
 10
100.8665545457513
 20
156.9078795555828
 30
0.0
 10
101.0680464655423
 20
156.9082485881745
 30
0.0
 10
101.0684147147421
 20
156.9082491823691
 30
0.0
 10
101.0687829954509
 20
156.9082496963261
 30
0.0
  0
SPLINE
  5
31E
330
77
100
AcDbEntity
  8
MaSichtkante
100
AcDbSpline
210
0.0
220
0.0
230
1.0
 70
     8
 71
     3
 72
    14
 73
    10
 74
     0
 42
0.000000001
 43
0.0000000001
 40
0.2496127919655327
 40
0.2496127919655327
 40
0.2496127919655327
 40
0.2496127919655327
 40
0.2497232574302331
 40
0.2497232574302331
 40
0.3100604856795242
 40
0.3100604856795242
 40
0.3703977139288155
 40
0.3703977139288155
 40
0.4021799862761579
 40
0.4021799862761579
 40
0.4021799862761579
 40
0.4021799862761579
 10
101.1166593066719
 20
156.9082496963261
 30
0.0
 10
101.1170275873806
 20
156.9082491823691
 30
0.0
 10
101.1173958365803
 20
156.9082485881745
 30
0.0
 10
101.3188877563713
 20
156.9078795555828
 30
0.0
 10
101.5292977910652
 20
156.8819499185286
 30
0.0
 10
101.9067289333541
 20
156.7847540151943
 30
0.0
 10
102.0739226116205
 20
156.7138120313037
 30
0.0
 10
102.269892770108
 20
156.5970230057523
 30
0.0
 10
102.3318585588969
 20
156.5525280076731
 30
0.0
 10
102.3855170659271
 20
156.50532583414
 30
0.0
  0
LINE
  5
31F
330
77
100
AcDbEntity
  8
MaSichtkante dünnFliese
100
AcDbLine
 10
99.57300529516322
 20
156.1265353362571
 30
0.0
 11
99.57300529516322
 21
149.6514192509726
 31
0.0
  0
LINE
  5
320
330
77
100
AcDbEntity
  8
MaSichtkante dünnFliese
100
AcDbLine
 10
101.0687829954509
 20
149.4478512533472
 30
0.0
 11
101.0687829954509
 21
156.5155971466957
 31
0.0
  0
LINE
  5
321
330
77
100
AcDbEntity
  8
MaSichtkante dünnFliese
100
AcDbLine
 10
101.1166593066718
 20
156.5155971466957
 30
0.0
 11
101.1166593066718
 21
149.4478512533472
 31
0.0
  0
LINE
  5
322
330
77
100
AcDbEntity
  8
MaSichtkante dünnFliese
100
AcDbLine
 10
102.6124370069595
 20
149.6514192509726
 30
0.0
 11
102.6124370069595
 21
156.1265353362571
 31
0.0
  0
CIRCLE
  5
323
330
77
100
AcDbEntity
  8
MaSichtkante
100
AcDbCircle
 10
101.0927211510613
 20
139.755141399859
 30
0.0
 40
35.00000000000001
  0
CIRCLE
  5
324
330
77
100
AcDbEntity
  8
MaSichtkante
100
AcDbCircle
 10
101.0927211510613
 20
139.755141399859
 30
0.0
 40
28.25000000000008
  0
CIRCLE
  5
325
330
77
100
AcDbEntity
  8
MaSichtkante
100
AcDbCircle
 10
101.0927211510613
 20
139.755141399859
 30
0.0
 40
28.70000000000008
  0
CIRCLE
  5
326
330
77
100
AcDbEntity
  8
MaSichtkante
100
AcDbCircle
 10
101.0927211510613
 20
139.755141399859
 30
0.0
 40
29.60000000000007
  0
CIRCLE
  5
327
330
77
100
AcDbEntity
  8
MaSichtkante
100
AcDbCircle
 10
101.0927211510613
 20
139.755141399859
 30
0.0
 40
30.05000000000006
  0
CIRCLE
  5
328
330
77
100
AcDbEntity
  8
MaSichtkante
100
AcDbCircle
 10
101.0927211510613
 20
139.755141399859
 30
0.0
 40
30.95000000000005
  0
CIRCLE
  5
329
330
77
100
AcDbEntity
  8
MaSichtkante
100
AcDbCircle
 10
101.0927211510613
 20
139.755141399859
 30
0.0
 40
31.40000000000004
  0
CIRCLE
  5
32A
330
77
100
AcDbEntity
  8
MaSichtkante
100
AcDbCircle
 10
101.0927211510613
 20
139.755141399859
 30
0.0
 40
32.30000000000003
  0
CIRCLE
  5
32B
330
77
100
AcDbEntity
  8
MaSichtkante
100
AcDbCircle
 10
101.0927211510613
 20
139.755141399859
 30
0.0
 40
32.75000000000002
  0
CIRCLE
  5
32C
330
77
100
AcDbEntity
  8
MaSichtkante
100
AcDbCircle
 10
101.0927211510613
 20
139.755141399859
 30
0.0
 40
33.65000000000001
  0
CIRCLE
  5
32D
330
77
100
AcDbEntity
  8
MaSichtkante
100
AcDbCircle
 10
101.0927211510613
 20
139.755141399859
 30
0.0
 40
34.10000000000001
  0
CIRCLE
  5
32E
330
77
100
AcDbEntity
  8
MaSichtkante
100
AcDbCircle
 10
112.2729113503541
 20
148.6710455664389
 30
0.0
 40
5.0
  0
CIRCLE
  5
32F
330
77
100
AcDbEntity
  8
MaSichtkante
100
AcDbCircle
 10
115.0341902952614
 20
136.5730920442837
 30
0.0
 40
5.0
  0
CIRCLE
  5
330
330
77
100
AcDbEntity
  8
MaSichtkante
100
AcDbCircle
 10
107.2972586204424
 20
126.8712865888544
 30
0.0
 40
5.0
  0
CIRCLE
  5
331
330
77
100
AcDbEntity
  8
MaSichtkante
100
AcDbCircle
 10
94.88818368168024
 20
126.8712865888544
 30
0.0
 40
5.0
  0
CIRCLE
  5
332
330
77
100
AcDbEntity
  8
MaSichtkante
100
AcDbCircle
 10
87.15125200686122
 20
136.5730920442837
 30
0.0
 40
5.0
  0
CIRCLE
  5
333
330
77
100
AcDbEntity
  8
MaSichtkante
100
AcDbCircle
 10
89.91253095176849
 20
148.6710455664389
 30
0.0
 40
5.0
  0
CIRCLE
  5
334
330
77
100
AcDbEntity
  8
MaSichtkante
100
AcDbCircle
 10
101.0927211510613
 20
154.055141399859
 30
0.0
 40
5.0
  0
CIRCLE
  5
335
330
77
100
AcDbEntity
  8
MaSichtkante dünnFliese
100
AcDbCircle
 10
101.0927211510613
 20
139.755141399859
 30
0.0
 40
7.446253669062421
  0
CIRCLE
  5
336
330
77
100
AcDbEntity
  8
MaSichtkante dünnFliese
100
AcDbCircle
 10
101.0927211510613
 20
139.755141399859
 30
0.0
 40
6.204265700613817
  0
CIRCLE
  5
337
330
77
100
AcDbEntity
  8
MaSichtkante dünnFliese
100
AcDbCircle
 10
101.0927211510613
 20
139.755141399859
 30
0.0
 40
23.90000000000001
  0
CIRCLE
  5
338
330
77
100
AcDbEntity
  8
MaSichtkante
100
AcDbCircle
 10
101.0927211510613
 20
139.755141399859
 30
0.0
 40
24.70000000000001
  0
CIRCLE
  5
339
330
77
100
AcDbEntity
  8
MaSichtkante
100
AcDbCircle
 10
101.0927211510613
 20
139.755141399859
 30
0.0
 40
27.5
  0
SPLINE
  5
33A
330
77
100
AcDbEntity
  8
MaSichtkante
100
AcDbSpline
210
0.0
220
0.0
230
1.0
 70
    24
 71
     3
 72
    14
 73
    10
 74
     0
 42
0.000000001
 43
0.0000000001
 40
3.098761438790823
 40
3.098761438790823
 40
3.098761438790823
 40
3.098761438790823
 40
3.32285938377743
 40
3.32285938377743
 40
3.568699422468401
 40
3.568699422468401
 40
3.814539461159371
 40
3.814539461159371
 40
4.038637406145976
 40
4.038637406145976
 40
4.038637406145976
 40
4.038637406145976
 10
105.9494175591148
 20
139.105141399859
 30
0.0
 10
105.2532860592296
 20
139.105141399859
 30
0.0
 10
104.475862387542
 20
139.105141399859
 30
0.0
 10
102.8076411177264
 20
139.105141399859
 30
0.0
 10
101.9121879466979
 20
139.105141399859
 30
0.0
 10
100.2732543554248
 20
139.105141399859
 30
0.0
 10
99.3778011843962
 20
139.105141399859
 30
0.0
 10
97.70957991458068
 20
139.105141399859
 30
0.0
 10
96.93215624289305
 20
139.105141399859
 30
0.0
 10
96.23602474300779
 20
139.105141399859
 30
0.0
  0
SPLINE
  5
33B
330
77
100
AcDbEntity
  8
MaSichtkante
100
AcDbSpline
210
0.0
220
0.0
230
1.0
 70
    24
 71
     3
 72
    14
 73
    10
 74
     0
 42
0.000000001
 43
0.0000000001
 40
3.098761438790823
 40
3.098761438790823
 40
3.098761438790823
 40
3.098761438790823
 40
3.32285938377743
 40
3.32285938377743
 40
3.568699422468401
 40
3.568699422468401
 40
3.814539461159371
 40
3.814539461159371
 40
4.038637406145976
 40
4.038637406145976
 40
4.038637406145976
 40
4.038637406145976
 10
96.23602474300779
 20
140.405141399859
 30
0.0
 10
96.93215624289305
 20
140.405141399859
 30
0.0
 10
97.70957991458068
 20
140.405141399859
 30
0.0
 10
99.3778011843962
 20
140.405141399859
 30
0.0
 10
100.2732543554248
 20
140.405141399859
 30
0.0
 10
101.9121879466979
 20
140.405141399859
 30
0.0
 10
102.8076411177264
 20
140.405141399859
 30
0.0
 10
104.475862387542
 20
140.405141399859
 30
0.0
 10
105.2532860592296
 20
140.405141399859
 30
0.0
 10
105.9494175591148
 20
140.405141399859
 30
0.0
  0
ARC
  5
33C
330
77
100
AcDbEntity
  8
MaSichtkante
100
AcDbCircle
 10
101.0927211510613
 20
139.755141399859
 30
0.0
 40
4.89999999999999
100
AcDbArc
 50
352.3770703961091
 51
7.622929603890717
  0
ARC
  5
33D
330
77
100
AcDbEntity
  8
MaSichtkante
100
AcDbCircle
 10
101.0927211510613
 20
139.755141399859
 30
0.0
 40
4.89999999999999
100
AcDbArc
 50
172.3770703961091
 51
187.6229296038907
  0
ARC
  5
33E
330
77
100
AcDbEntity
  8
MaSichtkante
100
AcDbCircle
 10
101.0927211510613
 20
139.755141399859
 30
0.0
 40
4.900000000000009
100
AcDbArc
 50
7.622929603890642
 51
172.3770703961091
  0
ARC
  5
33F
330
77
100
AcDbEntity
  8
MaSichtkante
100
AcDbCircle
 10
101.0927211510613
 20
139.755141399859
 30
0.0
 40
4.900000000000009
100
AcDbArc
 50
187.6229296038906
 51
352.3770703961091
  0
LINE
  5
340
330
77
100
AcDbEntity
  8
MaSichtkante
100
AcDbLine
 10
121.7927211510849
 20
219.4423153931778
 30
0.0
 11
80.39272115108497
 21
219.4423153931778
 31
0.0
  0
LINE
  5
341
330
77
100
AcDbEntity
  8
MaSichtkante
100
AcDbLine
 10
128.0927216281713
 20
237.9423153931778
 30
0.0
 11
74.0927206739986
 21
237.9423153931778
 31
0.0
  0
LINE
  5
342
330
77
100
AcDbEntity
  8
MaSichtkante
100
AcDbLine
 10
80.25336198136967
 20
232.1778520180487
 30
0.0
 11
77.13310376042767
 21
237.4515278844296
 31
0.0
  0
LINE
  5
343
330
77
100
AcDbEntity
  8
MaSichtkante
100
AcDbLine
 10
121.9320803208002
 20
232.1778520180487
 30
0.0
 11
125.0523385417423
 21
237.4515278844296
 31
0.0
  0
LINE
  5
344
330
77
100
AcDbEntity
  8
MaSichtkante
100
AcDbLine
 10
80.39272115108497
 20
219.4423153931778
 30
0.0
 11
80.39272115108497
 21
231.6686395267969
 31
0.0
  0
LINE
  5
345
330
77
100
AcDbEntity
  8
MaSichtkante
100
AcDbLine
 10
121.7927211510849
 20
219.4423153931778
 30
0.0
 11
121.7927211510849
 21
231.6686395267969
 31
0.0
  0
ARC
  5
346
330
77
100
AcDbEntity
  8
MaSichtkante
100
AcDbCircle
 10
128.092721151085
 20
243.4423153931778
 30
0.0
 40
5.499999999999997
100
AcDbArc
 50
270.0000049700065
 51
350.6114095964008
  0
ARC
  5
347
330
77
100
AcDbEntity
  8
MaSichtkante
100
AcDbCircle
 10
74.09272115108497
 20
243.4423153931778
 30
0.0
 40
5.499999999999997
100
AcDbArc
 50
189.3885904035988
 51
269.9999950299933
  0
LINE
  5
348
330
77
100
AcDbEntity
  8
MaSichtkante dünnFliese
100
AcDbLine
 10
121.5378698014043
 20
231.6686395267959
 30
0.0
 11
80.64757250076564
 21
231.6686395267959
 31
0.0
  0
LINE
  5
349
330
77
100
AcDbEntity
  8
MaSichtkante dünnFliese
100
AcDbLine
 10
80.5099290736828
 20
232.1778520180477
 30
0.0
 11
121.6755132284871
 21
232.1778520180477
 31
0.0
  0
LINE
  5
34A
330
77
100
AcDbEntity
  8
MaSichtkante dünnFliese
100
AcDbLine
 10
124.7573558929577
 20
237.4515278844285
 30
0.0
 11
77.42808640921224
 21
237.4515278844285
 31
0.0
  0
ARC
  5
34B
330
77
100
AcDbEntity
  8
MaSichtkante
100
AcDbCircle
 10
122.7927211510849
 20
231.6686395267969
 30
0.0
 40
1.0
100
AcDbArc
 50
149.3886115931329
 51
180.0
  0
ARC
  5
34C
330
77
100
AcDbEntity
  8
MaSichtkante
100
AcDbCircle
 10
79.39272115108497
 20
231.6686395267969
 30
0.0
 40
1.0
100
AcDbArc
 50
0.0
 51
30.61138840686708
  0
ARC
  5
34D
330
77
100
AcDbEntity
  8
MaSichtkante
100
AcDbCircle
 10
125.912979372027
 20
236.9423153931778
 30
0.0
 40
1.0
100
AcDbArc
 50
90.00000000000101
 51
149.3886115931329
  0
ARC
  5
34E
330
77
100
AcDbEntity
  8
MaSichtkante
100
AcDbCircle
 10
76.27246293014295
 20
236.9423153931778
 30
0.0
 40
1.0
100
AcDbArc
 50
30.61138840686735
 51
90.0
  0
LINE
  5
34F
330
77
100
AcDbEntity
  8
Threads(DIN)
100
AcDbLine
 10
81.69172115108496
 20
231.6686395267969
 30
0.0
 11
81.69172115108496
 21
219.4423153931778
 31
0.0
  0
LINE
  5
350
330
77
100
AcDbEntity
  8
Threads(DIN)
100
AcDbLine
 10
120.493721151085
 20
219.4423153931778
 30
0.0
 11
120.493721151085
 21
231.6686395267969
 31
0.0
  0
LINE
  5
351
330
77
100
AcDbEntity
  8
Sichtbare Kanten(DIN)
100
AcDbLine
 10
121.7927211510849
 20
231.6686395267969
 30
0.0
 11
80.39272115108497
 21
231.6686395267969
 31
0.0
  0
LINE
  5
352
330
77
100
AcDbEntity
  8
MaSichtkante dünnFliese
100
AcDbLine
 10
66.52362923025513
 20
242.9951031545392
 30
0.0
 11
135.6618130719148
 21
242.9951031545392
 31
0.0
  0
LINE
  5
353
330
77
100
AcDbEntity
  8
MaSichtkante dünnFliese
100
AcDbLine
 10
135.6618130719148
 20
245.2951031545392
 30
0.0
 11
66.52362923025513
 21
245.2951031545392
 31
0.0
  0
ARC
  5
354
330
77
100
AcDbEntity
  8
MaSichtkante
100
AcDbCircle
 10
66.54272115108496
 20
242.9951031545409
 30
0.0
 40
0.4500000000000001
100
AcDbArc
 50
180.0
 51
270.0
  0
ARC
  5
355
330
77
100
AcDbEntity
  8
MaSichtkante
100
AcDbCircle
 10
135.6427211510849
 20
242.9951031545408
 30
0.0
 40
0.4500000000000001
100
AcDbArc
 50
270.0
 51
0.0
  0
LINE
  5
356
330
77
100
AcDbEntity
  8
MaSichtkante
100
AcDbLine
 10
66.54272115108496
 20
242.5451031545409
 30
0.0
 11
135.6427211510849
 21
242.5451031545409
 31
0.0
  0
ARC
  5
357
330
77
100
AcDbEntity
  8
MaSichtkante
100
AcDbCircle
 10
71.94272115108491
 20
245.2967440386959
 30
0.0
 40
0.4500000000000002
100
AcDbArc
 50
90.0
 51
94.89443302771947
  0
ARC
  5
358
330
77
100
AcDbEntity
  8
MaSichtkante
100
AcDbCircle
 10
130.242721151085
 20
245.2967440386959
 30
0.0
 40
0.4500000000000001
100
AcDbArc
 50
85.1055669722805
 51
90.0
  0
LINE
  5
359
330
77
100
AcDbEntity
  8
MaSichtkante
100
AcDbLine
 10
130.242721151085
 20
245.7467440386958
 30
0.0
 11
71.94272115108491
 21
245.7467440386958
 31
0.0
  0
ARC
  5
35A
330
77
100
AcDbEntity
  8
MaSichtkante
100
AcDbCircle
 10
66.54272115108496
 20
245.2951031545408
 30
0.0
 40
0.4500000000000001
100
AcDbArc
 50
90.0
 51
180.0
  0
ARC
  5
35B
330
77
100
AcDbEntity
  8
MaSichtkante
100
AcDbCircle
 10
135.6427211510849
 20
245.2951031545408
 30
0.0
 40
0.4500000000000001
100
AcDbArc
 50
0.0
 51
90.0
  0
LINE
  5
35C
330
77
100
AcDbEntity
  8
MaSichtkante
100
AcDbLine
 10
135.6427211510849
 20
245.7451031545408
 30
0.0
 11
66.54272115108496
 21
245.7451031545408
 31
0.0
  0
LINE
  5
35D
330
77
100
AcDbEntity
  8
MaSichtkante
100
AcDbLine
 10
136.092721151085
 20
245.2951031545408
 30
0.0
 11
136.092721151085
 21
242.9951031545408
 31
0.0
  0
LINE
  5
35E
330
77
100
AcDbEntity
  8
MaSichtkante
100
AcDbLine
 10
66.09272115108497
 20
245.2951031545408
 30
0.0
 11
66.09272115108497
 21
242.9951031545409
 31
0.0
  0
LINE
  5
35F
330
77
100
AcDbEntity
  8
MaSichtkante dünnFliese
100
AcDbLine
 10
107.4956746979474
 20
264.0143746987137
 30
0.0
 11
94.68976760422256
 21
264.0143746987137
 31
0.0
  0
ARC
  5
360
330
77
100
AcDbEntity
  8
MaSichtkante
100
AcDbCircle
 10
108.8174762877723
 20
262.4467440386959
 30
0.0
 40
2.0
100
AcDbArc
 50
89.99999999999948
 51
128.3887568543871
  0
ARC
  5
361
330
77
100
AcDbEntity
  8
MaSichtkante
100
AcDbCircle
 10
93.36796601439758
 20
262.4467440386959
 30
0.0
 40
2.0
100
AcDbArc
 50
51.61124314561245
 51
90.0
  0
LINE
  5
362
330
77
100
AcDbEntity
  8
MaSichtkante
100
AcDbLine
 10
125.2070805050299
 20
264.4467440386959
 30
0.0
 11
76.97836179714006
 21
264.4467440386959
 31
0.0
  0
LINE
  5
363
330
77
100
AcDbEntity
  8
MaSichtkante dünnFliese
100
AcDbLine
 10
76.59095902109064
 20
264.8467440386947
 30
0.0
 11
125.5944832810793
 21
264.8467440386947
 31
0.0
  0
ARC
  5
364
330
77
100
AcDbEntity
  8
MaSichtkante
100
AcDbCircle
 10
125.2070805050299
 20
265.2467440386959
 30
0.0
 40
0.8
100
AcDbArc
 50
270.0
 51
330.0000000000006
  0
ARC
  5
365
330
77
100
AcDbEntity
  8
MaSichtkante
100
AcDbCircle
 10
76.97836179714006
 20
265.2467440386959
 30
0.0
 40
0.8000000000000001
100
AcDbArc
 50
209.9999999999993
 51
270.0
  0
LINE
  5
366
330
77
100
AcDbEntity
  8
MaSichtkante
100
AcDbLine
 10
104.8395163384644
 20
261.8467440386958
 30
0.0
 11
97.34592596370553
 21
261.8467440386958
 31
0.0
  0
LINE
  5
367
330
77
100
AcDbEntity
  8
MaSichtkante
100
AcDbLine
 10
128.592721151085
 20
265.2467440386959
 30
0.0
 11
73.59272115108497
 21
265.2467440386959
 31
0.0
  0
LINE
  5
368
330
77
100
AcDbEntity
  8
MaSichtkante
100
AcDbLine
 10
128.592721151085
 20
266.0467440386958
 30
0.0
 11
73.59272115108497
 21
266.0467440386958
 31
0.0
  0
LINE
  5
369
330
77
100
AcDbEntity
  8
MaSichtkante
100
AcDbLine
 10
97.34592596370553
 20
261.8467440386958
 30
0.0
 11
94.60995398284618
 21
264.0143746987139
 31
0.0
  0
LINE
  5
36A
330
77
100
AcDbEntity
  8
MaSichtkante
100
AcDbLine
 10
104.8395163384644
 20
261.8467440386958
 30
0.0
 11
107.5754883193237
 21
264.0143746987139
 31
0.0
  0
ARC
  5
36B
330
77
100
AcDbEntity
  8
MaSichtkante
100
AcDbCircle
 10
126.5927211510849
 20
264.4467440386959
 30
0.0
 40
0.7999999999999974
100
AcDbArc
 50
89.99999999999872
 51
150.0000000000006
  0
ARC
  5
36C
330
77
100
AcDbEntity
  8
MaSichtkante
100
AcDbCircle
 10
75.59272115108498
 20
264.4467440386959
 30
0.0
 40
0.7999999999999974
100
AcDbArc
 50
29.99999999999936
 51
90.0
  0
LINE
  5
36D
330
77
100
AcDbEntity
  8
MaSichtkante
100
AcDbLine
 10
73.59272115108497
 20
265.2467440386959
 30
0.0
 11
73.59272115108497
 21
266.0467440386958
 31
0.0
  0
LINE
  5
36E
330
77
100
AcDbEntity
  8
MaSichtkante
100
AcDbLine
 10
128.592721151085
 20
265.2467440386959
 30
0.0
 11
128.592721151085
 21
266.0467440386958
 31
0.0
  0
SPLINE
  5
36F
330
77
100
AcDbEntity
  8
MaSichtkante
100
AcDbSpline
210
0.0
220
0.0
230
1.0
 70
     8
 71
     3
 72
    14
 73
    10
 74
     0
 42
0.000000001
 43
0.0000000001
 40
3.199093274371198
 40
3.199093274371198
 40
3.199093274371198
 40
3.199093274371198
 40
3.32285938377743
 40
3.32285938377743
 40
3.568699422468401
 40
3.568699422468401
 40
3.814539461159371
 40
3.814539461159371
 40
3.938305570565603
 40
3.938305570565603
 40
3.938305570565603
 40
3.938305570565603
 10
104.971200522207
 20
266.0460641999946
 30
0.0
 10
104.5535314733119
 20
266.1846576866555
 30
0.0
 10
104.119696876438
 20
266.3036992763857
 30
0.0
 10
102.8076411177501
 20
266.5821200491491
 30
0.0
 10
101.9121879467215
 20
266.6617730525552
 30
0.0
 10
100.2732543554484
 20
266.6617730525552
 30
0.0
 10
99.37780118441985
 20
266.5821200491491
 30
0.0
 10
98.06574542573194
 20
266.3036992763857
 30
0.0
 10
97.63191082885807
 20
266.1846576866555
 30
0.0
 10
97.2142417799629
 20
266.0460641999946
 30
0.0
  0
LINE
  5
370
330
77
100
AcDbEntity
  8
MaSichtkante
100
AcDbLine
 10
104.092721151085
 20
196.6737963027029
 30
0.0
 11
98.09272115108498
 21
196.6737963027029
 31
0.0
  0
LINE
  5
371
330
77
100
AcDbEntity
  8
MaSichtkante
100
AcDbLine
 10
104.092721151085
 20
261.8467440386957
 30
0.0
 11
104.092721151085
 21
245.7467440386958
 31
0.0
  0
LINE
  5
372
330
77
100
AcDbEntity
  8
MaSichtkante
100
AcDbLine
 10
104.092721151085
 20
219.4423153931777
 30
0.0
 11
104.0927211510849
 21
196.6737963027029
 31
0.0
  0
LINE
  5
373
330
77
100
AcDbEntity
  8
MaSichtkante
100
AcDbLine
 10
98.09272115108498
 20
261.8467440386957
 30
0.0
 11
98.09272115108498
 21
245.7467440386958
 31
0.0
  0
LINE
  5
374
330
77
100
AcDbEntity
  8
MaSichtkante
100
AcDbLine
 10
98.09272115108498
 20
219.4423153931777
 30
0.0
 11
98.09272115108498
 21
196.6737963027029
 31
0.0
  0
LINE
  5
375
330
77
100
AcDbEntity
  8
Threads(DIN)
100
AcDbLine
 10
103.4937211510849
 20
196.673796302703
 30
0.0
 11
103.4937211510849
 21
219.4423153931778
 31
0.0
  0
LINE
  5
376
330
77
100
AcDbEntity
  8
Threads(DIN)
100
AcDbLine
 10
103.4937211510849
 20
245.7467440386958
 30
0.0
 11
103.4937211510849
 21
260.4737963027031
 31
0.0
  0
LINE
  5
377
330
77
100
AcDbEntity
  8
Threads(DIN)
100
AcDbLine
 10
98.69172115108497
 20
260.4737963027031
 30
0.0
 11
98.69172115108497
 21
245.7467440386958
 31
0.0
  0
LINE
  5
378
330
77
100
AcDbEntity
  8
Threads(DIN)
100
AcDbLine
 10
98.69172115108497
 20
219.4423153931778
 30
0.0
 11
98.69172115108497
 21
196.673796302703
 31
0.0
  0
LINE
  5
379
330
77
100
AcDbEntity
  8
Sichtbare Kanten(DIN)
100
AcDbLine
 10
98.09272115108498
 20
260.4737963027031
 30
0.0
 11
104.092721151085
 21
260.4737963027031
 31
0.0
  0
ENDSEC
  0
SECTION
  2
OBJECTS
  0
DICTIONARY
  5
C
330
0
100
AcDbDictionary
281
     1
  3
ACAD_CIP_PREVIOUS_PRODUCT_INFO
350
43B
  3
ACAD_COLOR
350
6E
  3
ACAD_DETAILVIEWSTYLE
350
433
  3
ACAD_GROUP
350
D
  3
ACAD_LAYOUT
350
6D
  3
ACAD_MATERIAL
350
10
  3
ACAD_MLEADERSTYLE
350
71
  3
ACAD_MLINESTYLE
350
6A
  3
ACAD_PLOTSETTINGS
350
6C
  3
ACAD_PLOTSTYLENAME
350
E
  3
ACAD_SCALELIST
350
3D
  3
ACAD_SECTIONVIEWSTYLE
350
431
  3
ACAD_TABLESTYLE
350
6F
  3
ACAD_VISUALSTYLE
350
29
  3
ACDB_RECOMPOSE_DATA
350
5B8
  3
AcDbVariableDictionary
350
37A
  3
DWGPROPS
350
5B9
  0
DICTIONARY
  5
55A
330
1DF
100
AcDbDictionary
280
     1
281
     1
  0
DICTIONARY
  5
385
330
106
100
AcDbDictionary
280
     1
281
     1
  3
ACAD_MLATT
360
56A
  3
ACAD_XREC_ROUNDTRIP
360
569
  0
DICTIONARY
  5
534
330
533
100
AcDbDictionary
280
     1
281
     1
  3
ACAD_MLATT
360
593
  3
ACAD_XREC_ROUNDTRIP
360
592
  0
DICTIONARY
  5
536
330
535
100
AcDbDictionary
280
     1
281
     1
  3
ACAD_MLATT
360
595
  3
ACAD_XREC_ROUNDTRIP
360
594
  0
DICTIONARY
  5
538
330
537
100
AcDbDictionary
280
     1
281
     1
  3
ACAD_MLATT
360
597
  3
ACAD_XREC_ROUNDTRIP
360
596
  0
DICTIONARY
  5
53A
330
539
100
AcDbDictionary
280
     1
281
     1
  3
ACAD_MLATT
360
599
  3
ACAD_XREC_ROUNDTRIP
360
598
  0
DICTIONARY
  5
53C
330
53B
100
AcDbDictionary
280
     1
281
     1
  3
ACAD_MLATT
360
59B
  3
ACAD_XREC_ROUNDTRIP
360
59A
  0
DICTIONARY
  5
53E
330
53D
100
AcDbDictionary
280
     1
281
     1
  3
ACAD_MLATT
360
59D
  3
ACAD_XREC_ROUNDTRIP
360
59C
  0
DICTIONARY
  5
540
330
53F
100
AcDbDictionary
280
     1
281
     1
  3
ACAD_MLATT
360
59F
  3
ACAD_XREC_ROUNDTRIP
360
59E
  0
DICTIONARY
  5
542
330
541
100
AcDbDictionary
280
     1
281
     1
  3
ACAD_MLATT
360
5A1
  3
ACAD_XREC_ROUNDTRIP
360
5A0
  0
DICTIONARY
  5
544
330
543
100
AcDbDictionary
280
     1
281
     1
  3
ACAD_MLATT
360
5A3
  3
ACAD_XREC_ROUNDTRIP
360
5A2
  0
DICTIONARY
  5
546
330
545
100
AcDbDictionary
280
     1
281
     1
  3
ACAD_MLATT
360
5A5
  3
ACAD_XREC_ROUNDTRIP
360
5A4
  0
DICTIONARY
  5
548
330
547
100
AcDbDictionary
280
     1
281
     1
  3
ACAD_MLATT
360
5A7
  3
ACAD_XREC_ROUNDTRIP
360
5A6
  0
DICTIONARY
  5
54A
330
549
100
AcDbDictionary
280
     1
281
     1
  3
ACAD_MLATT
360
5A9
  3
ACAD_XREC_ROUNDTRIP
360
5A8
  0
DICTIONARY
  5
54C
330
54B
100
AcDbDictionary
280
     1
281
     1
  3
ACAD_MLATT
360
5AB
  3
ACAD_XREC_ROUNDTRIP
360
5AA
  0
DICTIONARY
  5
54E
330
54D
100
AcDbDictionary
280
     1
281
     1
  3
ACAD_MLATT
360
5AD
  3
ACAD_XREC_ROUNDTRIP
360
5AC
  0
DICTIONARY
  5
550
330
54F
100
AcDbDictionary
280
     1
281
     1
  3
ACAD_MLATT
360
5AF
  3
ACAD_XREC_ROUNDTRIP
360
5AE
  0
DICTIONARY
  5
552
330
551
100
AcDbDictionary
280
     1
281
     1
  3
ACAD_MLATT
360
5B1
  3
ACAD_XREC_ROUNDTRIP
360
5B0
  0
DICTIONARY
  5
554
330
553
100
AcDbDictionary
280
     1
281
     1
  3
ACAD_MLATT
360
5B3
  3
ACAD_XREC_ROUNDTRIP
360
5B2
  0
DICTIONARY
  5
556
330
555
100
AcDbDictionary
280
     1
281
     1
  3
ACAD_MLATT
360
5B5
  3
ACAD_XREC_ROUNDTRIP
360
5B4
  0
DICTIONARY
  5
558
330
557
100
AcDbDictionary
280
     1
281
     1
  3
ACAD_MLATT
360
5B7
  3
ACAD_XREC_ROUNDTRIP
360
5B6
  0
DICTIONARY
  5
3C2
330
2ED
100
AcDbDictionary
280
     1
281
     1
  3
ACAD_MLATT
360
56D
  3
ACAD_XREC_ROUNDTRIP
360
56C
  0
DICTIONARY
  5
3C5
330
2EE
100
AcDbDictionary
280
     1
281
     1
  3
ACAD_MLATT
360
56F
  3
ACAD_XREC_ROUNDTRIP
360
56E
  0
DICTIONARY
  5
3C8
330
2EF
100
AcDbDictionary
280
     1
281
     1
  3
ACAD_MLATT
360
571
  3
ACAD_XREC_ROUNDTRIP
360
570
  0
DICTIONARY
  5
3CB
330
2F0
100
AcDbDictionary
280
     1
281
     1
  3
ACAD_MLATT
360
573
  3
ACAD_XREC_ROUNDTRIP
360
572
  0
DICTIONARY
  5
3CE
330
2F1
100
AcDbDictionary
280
     1
281
     1
  3
ACAD_MLATT
360
575
  3
ACAD_XREC_ROUNDTRIP
360
574
  0
DICTIONARY
  5
3D1
330
2F2
100
AcDbDictionary
280
     1
281
     1
  3
ACAD_MLATT
360
577
  3
ACAD_XREC_ROUNDTRIP
360
576
  0
DICTIONARY
  5
3D4
330
2F3
100
AcDbDictionary
280
     1
281
     1
  3
ACAD_MLATT
360
579
  3
ACAD_XREC_ROUNDTRIP
360
578
  0
DICTIONARY
  5
3D7
330
2F4
100
AcDbDictionary
280
     1
281
     1
  3
ACAD_MLATT
360
57B
  3
ACAD_XREC_ROUNDTRIP
360
57A
  0
DICTIONARY
  5
3DA
330
2F5
100
AcDbDictionary
280
     1
281
     1
  3
ACAD_MLATT
360
57D
  3
ACAD_XREC_ROUNDTRIP
360
57C
  0
DICTIONARY
  5
3DD
330
2F6
100
AcDbDictionary
280
     1
281
     1
  3
ACAD_MLATT
360
57F
  3
ACAD_XREC_ROUNDTRIP
360
57E
  0
DICTIONARY
  5
3E0
330
2F7
100
AcDbDictionary
280
     1
281
     1
  3
ACAD_MLATT
360
581
  3
ACAD_XREC_ROUNDTRIP
360
580
  0
DICTIONARY
  5
3E3
330
2F8
100
AcDbDictionary
280
     1
281
     1
  3
ACAD_MLATT
360
583
  3
ACAD_XREC_ROUNDTRIP
360
582
  0
DICTIONARY
  5
3E6
330
2F9
100
AcDbDictionary
280
     1
281
     1
  3
ACAD_MLATT
360
585
  3
ACAD_XREC_ROUNDTRIP
360
584
  0
DICTIONARY
  5
3E9
330
2FA
100
AcDbDictionary
280
     1
281
     1
  3
ACAD_MLATT
360
587
  3
ACAD_XREC_ROUNDTRIP
360
586
  0
DICTIONARY
  5
3EC
330
2FB
100
AcDbDictionary
280
     1
281
     1
  3
ACAD_MLATT
360
589
  3
ACAD_XREC_ROUNDTRIP
360
588
  0
DICTIONARY
  5
3EF
330
2FC
100
AcDbDictionary
280
     1
281
     1
  3
ACAD_MLATT
360
58B
  3
ACAD_XREC_ROUNDTRIP
360
58A
  0
DICTIONARY
  5
3F2
330
2FD
100
AcDbDictionary
280
     1
281
     1
  3
ACAD_MLATT
360
58D
  3
ACAD_XREC_ROUNDTRIP
360
58C
  0
DICTIONARY
  5
3F5
330
2FE
100
AcDbDictionary
280
     1
281
     1
  3
ACAD_MLATT
360
58F
  3
ACAD_XREC_ROUNDTRIP
360
58E
  0
DICTIONARY
  5
3F8
330
2FF
100
AcDbDictionary
280
     1
281
     1
  3
ACAD_MLATT
360
591
  3
ACAD_XREC_ROUNDTRIP
360
590
  0
XRECORD
  5
43B
102
{ACAD_REACTORS
330
C
102
}
330
C
100
AcDbXrecord
280
     1
300
ACD
300
2021
300

  0
DICTIONARY
  5
6E
102
{ACAD_REACTORS
330
C
102
}
330
C
100
AcDbDictionary
281
     1
  0
DICTIONARY
  5
433
102
{ACAD_REACTORS
330
C
102
}
330
C
100
AcDbDictionary
281
     1
  3
Metric50
350
434
  0
DICTIONARY
  5
D
102
{ACAD_REACTORS
330
C
102
}
330
C
100
AcDbDictionary
281
     1
  0
DICTIONARY
  5
6D
102
{ACAD_REACTORS
330
C
102
}
330
C
100
AcDbDictionary
281
     1
  3
Layout1
350
76
  3
Layout2
350
7E
  3
Model
350
7A
  0
DICTIONARY
  5
10
102
{ACAD_REACTORS
330
C
102
}
330
C
100
AcDbDictionary
281
     1
  3
ByBlock
350
19
  3
ByLayer
350
11
  3
Global
350
21
  0
DICTIONARY
  5
71
102
{ACAD_REACTORS
330
C
102
}
330
C
100
AcDbDictionary
281
     1
  3
Standard
350
72
  0
DICTIONARY
  5
6A
102
{ACAD_REACTORS
330
C
102
}
330
C
100
AcDbDictionary
281
     1
  3
Standard
350
6B
  0
DICTIONARY
  5
6C
102
{ACAD_REACTORS
330
C
102
}
330
C
100
AcDbDictionary
281
     1
  0
ACDBDICTIONARYWDFLT
  5
E
102
{ACAD_REACTORS
330
C
102
}
330
C
100
AcDbDictionary
281
     1
  3
Normal
350
F
100
AcDbDictionaryWithDefault
340
F
  0
DICTIONARY
  5
3D
102
{ACAD_REACTORS
330
C
102
}
330
C
100
AcDbDictionary
281
     1
  3
A0
350
3E
  3
A1
350
3F
  3
A2
350
40
  3
A3
350
41
  3
A4
350
42
  3
A5
350
43
  3
A6
350
44
  3
A7
350
45
  3
A8
350
46
  3
A9
350
47
  3
B0
350
48
  3
B1
350
49
  3
B2
350
4A
  3
B3
350
4B
  3
B4
350
4C
  3
B5
350
4D
  3
B6
350
4E
  3
B7
350
4F
  3
B8
350
50
  3
B9
350
51
  3
C0
350
52
  3
C1
350
53
  3
C2
350
54
  3
C3
350
55
  3
C4
350
56
  3
C5
350
57
  3
C6
350
58
  3
C7
350
59
  3
C8
350
5A
  3
C9
350
5B
  3
D0
350
5C
  3
D1
350
5D
  3
D2
350
5E
  0
DICTIONARY
  5
431
102
{ACAD_REACTORS
330
C
102
}
330
C
100
AcDbDictionary
281
     1
  3
Metric50
350
432
  0
DICTIONARY
  5
6F
102
{ACAD_REACTORS
330
C
102
}
330
C
100
AcDbDictionary
281
     1
  3
Standard
350
70
  0
DICTIONARY
  5
29
102
{ACAD_REACTORS
330
C
102
}
330
C
100
AcDbDictionary
281
     1
  3
2dWireframe
350
2F
  3
3D Hidden
350
31
  3
3dWireframe
350
30
  3
Basic
350
2E
  3
Brighten
350
35
  3
ColorChange
350
39
  3
Conceptual
350
32
  3
Dim
350
34
  3
EdgeColorOff
350
3C
  3
Facepattern
350
38
  3
Flat
350
2A
  3
FlatWithEdges
350
2B
  3
Gouraud
350
2C
  3
GouraudWithEdges
350
2D
  3
Hidden
350
42B
  3
JitterOff
350
3A
  3
Linepattern
350
37
  3
OverhangOff
350
3B
  3
Realistic
350
33
  3
Shaded
350
430
  3
Shaded with edges
350
42F
  3
Shades of Gray
350
42C
  3
Sketchy
350
42D
  3
Thicken
350
36
  3
Wireframe
350
42A
  3
X-Ray
350
42E
  0
XRECORD
  5
5B8
102
{ACAD_REACTORS
330
C
102
}
330
C
100
AcDbXrecord
280
     1
 90
        1
330
70
330
106
330
2ED
330
2EE
330
2EF
330
2F0
330
2F1
330
2F2
330
2F3
330
2F4
330
2F5
330
2F6
330
2F7
330
2F8
330
2F9
330
2FA
330
2FB
330
2FC
330
2FD
330
2FE
330
2FF
330
533
330
535
330
537
330
539
330
53B
330
53D
330
53F
330
541
330
543
330
545
330
547
330
549
330
54B
330
54D
330
54F
330
551
330
553
330
555
330
557
  0
DICTIONARY
  5
37A
102
{ACAD_REACTORS
330
C
102
}
330
C
100
AcDbDictionary
281
     1
  3
CANNOSCALE
350
37E
  3
CMLEADERSTYLE
350
37C
  3
CTABLESTYLE
350
37B
  3
CVIEWDETAILSTYLE
350
560
  3
CVIEWSECTIONSTYLE
350
561
  3
DIMASSOC
350
565
  3
HIDETEXT
350
564
  3
INDEXCTL
350
563
  3
LAYEREVAL
350
380
  3
LAYERNOTIFY
350
381
  3
LIGHTINGUNITS
350
37F
  3
MSLTSCALE
350
37D
  3
SORTENTS
350
562
  3
XCLIPFRAME
350
566
  0
XRECORD
  5
5B9
102
{ACAD_REACTORS
330
C
102
}
330
C
100
AcDbXrecord
280
     1
  1
DWGPROPS COOKIE
  2

  3

  4

  6

  7

  8
BE010
  9

300
Manager=
301
Company=
302
Category=
303
Part Number=0222-232513
304
Description=Siebablaufventil DN 32
305
Project=
306
Designer=
307
Engineer=
308
Authority=
309
Cost Center=
 40
0.0005976851851852
 41
2455813.701469907
 42
2460056.585752315
  1

 90
       35
300
Vendor=
300
User Status=
300
Design Status=WorkInProgress
300
Checked by=
300
Engr Approved by=
300
Mfg Approved by=
300
Departement=FAR-Marketing
300
Collection=Zubehör
300
Document_Number=0222-232513
300
Title=Siebablaufventil DN 32
300
Auxiliary_Remark1=ZANMW901
300
Auxiliary_Remark2=Marketingzeichnung
300
Part_Number=11002099
300
Unit=mm
300
Scale=NTS
300
Drawn_By=Haken
300
Drawn_Date=08/04/2011
300
Checked_By=Lösch
300
Modified_By=
300
Revision_Index_1=A
300
Revision_By_1=Haken
300
Revision_Date_1=08/04/2011
300
Revision_Memo_1=
300
EAN=7612982100178
300
Checked_Date=08/19/2011
  0
XRECORD
  5
56A
102
{ACAD_REACTORS
330
385
102
}
330
385
100
AcDbXrecord
280
     1
 70
     4
 70
     0
 70
     0
 40
1.0
  2
<Enter_Prompt_for_Field>
  1
Embedded Object
 10
0.0
 20
0.0
 30
0.0
 40
2.5
 41
0.0
 46
0.0
 71
     5
 72
     5
  1
\W0.9000;
  7
Text Style49
 73
     1
 44
1.0
  0
XRECORD
  5
569
102
{ACAD_REACTORS
330
385
102
}
330
385
100
AcDbXrecord
280
     1
102
ACAD_MATT_HEIGHT
140
2.5
  0
XRECORD
  5
593
102
{ACAD_REACTORS
330
534
102
}
330
534
100
AcDbXrecord
280
     1
 70
     4
 70
     0
 70
     0
 40
1.0
  2
Title
  1
Embedded Object
 10
206.6
 20
126.0241925130958
 30
0.0
 40
5.0
 41
89.14362202638884
 46
0.0
 71
     4
 72
     5
  1
Siebablaufventil DN 32
  7
Text Style20
 73
     1
 44
1.0
  0
XRECORD
  5
592
102
{ACAD_REACTORS
330
534
102
}
330
534
100
AcDbXrecord
280
     1
102
ACAD_MATT_HEIGHT
140
5.0
  0
XRECORD
  5
595
102
{ACAD_REACTORS
330
536
102
}
330
536
100
AcDbXrecord
280
     1
 70
     4
 70
     0
 70
     0
 40
1.0
  2
Auxiliary_Remark1
  1
Embedded Object
 10
206.6000000000001
 20
119.5241925130958
 30
0.0
 40
3.499999940395355
 41
88.8588638187849
 46
0.0
 71
     4
 72
     5
  1
ZANMW901
  7
Text Style9
 73
     1
 44
1.0
  0
XRECORD
  5
594
102
{ACAD_REACTORS
330
536
102
}
330
536
100
AcDbXrecord
280
     1
102
ACAD_MATT_HEIGHT
140
3.499999940395355
  0
XRECORD
  5
597
102
{ACAD_REACTORS
330
538
102
}
330
538
100
AcDbXrecord
280
     1
 70
     4
 70
     0
 70
     0
 40
1.0
  2
Auxiliary_Remark2
  1
Embedded Object
 10
206.6
 20
113.0241925130958
 30
0.0
 40
3.499999940395355
 41
88.50560020660971
 46
0.0
 71
     4
 72
     5
  1
Marketingzeichnung
  7
Text Style9
 73
     1
 44
1.0
  0
XRECORD
  5
596
102
{ACAD_REACTORS
330
538
102
}
330
538
100
AcDbXrecord
280
     1
102
ACAD_MATT_HEIGHT
140
3.499999940395355
  0
XRECORD
  5
599
102
{ACAD_REACTORS
330
53A
102
}
330
53A
100
AcDbXrecord
280
     1
 70
     4
 70
     0
 70
     0
 40
1.0
  2
Part_number
  1
Embedded Object
 10
248.1
 20
141.0241925130958
 30
0.0
 40
2.5
 41
35.7212232739224
 46
0.0
 71
     4
 72
     5
  1
11002099
  7
Text Style38
 73
     1
 44
1.0
  0
XRECORD
  5
598
102
{ACAD_REACTORS
330
53A
102
}
330
53A
100
AcDbXrecord
280
     1
102
ACAD_MATT_HEIGHT
140
2.5
  0
XRECORD
  5
59B
102
{ACAD_REACTORS
330
53C
102
}
330
53C
100
AcDbXrecord
280
     1
 70
     4
 70
     0
 70
     0
 40
1.0
  2
Document_Number
  1
Embedded Object
 10
218.1
 20
104.2741925130957
 30
0.0
 40
5.0
 41
45.26060067066413
 46
0.0
 71
     4
 72
     5
  1
0222-232513
  7
Text Style20
 73
     1
 44
1.0
  0
XRECORD
  5
59A
102
{ACAD_REACTORS
330
53C
102
}
330
53C
100
AcDbXrecord
280
     1
102
ACAD_MATT_HEIGHT
140
5.0
  0
XRECORD
  5
59D
102
{ACAD_REACTORS
330
53E
102
}
330
53E
100
AcDbXrecord
280
     1
 70
     4
 70
     0
 70
     0
 40
1.0
  2
Revision_Memo_1
  1
Embedded Object
 10
155.6
 20
138.0241925130958
 30
0.0
 40
2.000000029802321
 41
46.75017271010267
 46
0.0
 71
     1
 72
     5
  1

  7
Text Style40
 73
     1
 44
1.0
  0
XRECORD
  5
59C
102
{ACAD_REACTORS
330
53E
102
}
330
53E
100
AcDbXrecord
280
     1
102
ACAD_MATT_HEIGHT
140
2.000000029802321
  0
XRECORD
  5
59F
102
{ACAD_REACTORS
330
540
102
}
330
540
100
AcDbXrecord
280
     1
 70
     4
 70
     0
 70
     0
 40
1.0
  2
Revision_Index_1
  1
Embedded Object
 10
264.6
 20
104.2741925130957
 30
0.0
 40
5.0
 41
11.14714749717635
 46
0.0
 71
     4
 72
     5
  1
A
  7
Text Style20
 73
     1
 44
1.0
  0
XRECORD
  5
59E
102
{ACAD_REACTORS
330
540
102
}
330
540
100
AcDbXrecord
280
     1
102
ACAD_MATT_HEIGHT
140
5.0
  0
XRECORD
  5
5A1
102
{ACAD_REACTORS
330
542
102
}
330
542
100
AcDbXrecord
280
     1
 70
     4
 70
     0
 70
     0
 40
1.0
  2
Sheet_Size
  1
Embedded Object
 10
205.6
 20
104.2741925130957
 30
0.0
 40
5.0
 41
44.17438307011514
 46
0.0
 71
     4
 72
     5
  1
A4
  7
Text Style20
 73
     1
 44
1.0
  0
XRECORD
  5
5A0
102
{ACAD_REACTORS
330
542
102
}
330
542
100
AcDbXrecord
280
     1
102
ACAD_MATT_HEIGHT
140
5.0
  0
XRECORD
  5
5A3
102
{ACAD_REACTORS
330
544
102
}
330
544
100
AcDbXrecord
280
     1
 70
     4
 70
     0
 70
     0
 40
1.0
  2
Drawn_By
  1
Embedded Object
 10
90.6
 20
141.0241925130958
 30
0.0
 40
2.000000029802321
 41
14.31996733840145
 46
0.0
 71
     4
 72
     5
  1
Haken
  7
Text Style40
 73
     1
 44
1.0
  0
XRECORD
  5
5A2
102
{ACAD_REACTORS
330
544
102
}
330
544
100
AcDbXrecord
280
     1
102
ACAD_MATT_HEIGHT
140
2.000000029802321
  0
XRECORD
  5
5A5
102
{ACAD_REACTORS
330
546
102
}
330
546
100
AcDbXrecord
280
     1
 70
     4
 70
     0
 70
     0
 40
1.0
  2
Modified_By
  1
Embedded Object
 10
90.6
 20
133.5241925130958
 30
0.0
 40
2.000000029802321
 41
13.91658797675633
 46
0.0
 71
     4
 72
     5
  1

  7
Text Style40
 73
     1
 44
1.0
  0
XRECORD
  5
5A4
102
{ACAD_REACTORS
330
546
102
}
330
546
100
AcDbXrecord
280
     1
102
ACAD_MATT_HEIGHT
140
2.000000029802321
  0
XRECORD
  5
5A7
102
{ACAD_REACTORS
330
548
102
}
330
548
100
AcDbXrecord
280
     1
 70
     4
 70
     0
 70
     0
 40
1.0
  2
Drawn_Date
  1
Embedded Object
 10
135.6
 20
141.0241925130958
 30
0.0
 40
2.000000029802321
 41
20.97572680554579
 46
0.0
 71
     4
 72
     5
  1
04.08.2011
  7
Text Style40
 73
     1
 44
1.0
  0
XRECORD
  5
5A6
102
{ACAD_REACTORS
330
548
102
}
330
548
100
AcDbXrecord
280
     1
102
ACAD_MATT_HEIGHT
140
2.000000029802321
  0
XRECORD
  5
5A9
102
{ACAD_REACTORS
330
54A
102
}
330
54A
100
AcDbXrecord
280
     1
 70
     4
 70
     0
 70
     0
 40
1.0
  2
Modified_Date
  1
Embedded Object
 10
135.6
 20
133.5241925130958
 30
0.0
 40
2.000000029802321
 41
20.16896808225555
 46
0.0
 71
     4
 72
     5
  1

  7
Text Style40
 73
     1
 44
1.0
  0
XRECORD
  5
5A8
102
{ACAD_REACTORS
330
54A
102
}
330
54A
100
AcDbXrecord
280
     1
102
ACAD_MATT_HEIGHT
140
2.000000029802321
  0
XRECORD
  5
5AB
102
{ACAD_REACTORS
330
54C
102
}
330
54C
100
AcDbXrecord
280
     1
 70
     4
 70
     0
 70
     0
 40
1.0
  2
Revision_Titel_1
  1
Embedded Object
 10
155.6
 20
141.0241925130958
 30
0.0
 40
2.000000029802321
 41
52.8572926113155
 46
0.0
 71
     4
 72
     5
  1

  7
Text Style40
 73
     1
 44
1.0
  0
XRECORD
  5
5AA
102
{ACAD_REACTORS
330
54C
102
}
330
54C
100
AcDbXrecord
280
     1
102
ACAD_MATT_HEIGHT
140
2.000000029802321
  0
XRECORD
  5
5AD
102
{ACAD_REACTORS
330
54E
102
}
330
54E
100
AcDbXrecord
280
     1
 70
     4
 70
     0
 70
     0
 40
1.0
  2
Sheet_number
  1
Embedded Object
 10
278.35
 20
104.2741925130957
 30
0.0
 40
5.0
 41
0.0
 46
0.0
 71
     5
 72
     5
  1
\W0.9000;5 
  7
Text__5.0mm
 73
     1
 44
1.0
  0
XRECORD
  5
5AC
102
{ACAD_REACTORS
330
54E
102
}
330
54E
100
AcDbXrecord
280
     1
102
ACAD_MATT_HEIGHT
140
5.0
  0
XRECORD
  5
5AF
102
{ACAD_REACTORS
330
550
102
}
330
550
100
AcDbXrecord
280
     1
 70
     4
 70
     0
 70
     0
 40
1.0
  2
Number_of_sheets
  1
Embedded Object
 10
285.85
 20
104.2741925130957
 30
0.0
 40
5.0
 41
0.0
 46
0.0
 71
     5
 72
     5
  1
\W0.9000;5 
  7
Text__5.0mm
 73
     1
 44
1.0
  0
XRECORD
  5
5AE
102
{ACAD_REACTORS
330
550
102
}
330
550
100
AcDbXrecord
280
     1
102
ACAD_MATT_HEIGHT
140
5.0
  0
XRECORD
  5
5B1
102
{ACAD_REACTORS
330
552
102
}
330
552
100
AcDbXrecord
280
     1
 70
     4
 70
     0
 70
     0
 40
1.0
  2
FUN
  1
Embedded Object
 10
205.6
 20
133.5241925130958
 30
0.0
 40
2.5
 41
35.7212232739224
 46
0.0
 71
     4
 72
     5
  1

  7
Text Style38
 73
     1
 44
1.0
  0
XRECORD
  5
5B0
102
{ACAD_REACTORS
330
552
102
}
330
552
100
AcDbXrecord
280
     1
102
ACAD_MATT_HEIGHT
140
2.5
  0
XRECORD
  5
5B3
102
{ACAD_REACTORS
330
554
102
}
330
554
100
AcDbXrecord
280
     1
 70
     4
 70
     0
 70
     0
 40
1.0
  2
EAN
  1
Embedded Object
 10
248.1
 20
133.5241925130958
 30
0.0
 40
2.5
 41
35.7212232739224
 46
0.0
 71
     4
 72
     5
  1
7612982100178
  7
Text Style38
 73
     1
 44
1.0
  0
XRECORD
  5
5B2
102
{ACAD_REACTORS
330
554
102
}
330
554
100
AcDbXrecord
280
     1
102
ACAD_MATT_HEIGHT
140
2.5
  0
XRECORD
  5
5B5
102
{ACAD_REACTORS
330
556
102
}
330
556
100
AcDbXrecord
280
     1
 70
     4
 70
     0
 70
     0
 40
1.0
  2
Departement
  1
Embedded Object
 10
110.6
 20
133.5241925130958
 30
0.0
 40
2.000000029802321
 41
17.55611008168829
 46
0.0
 71
     4
 72
     5
  1
FAR-Marketing
  7
Text Style40
 73
     1
 44
1.0
  0
XRECORD
  5
5B4
102
{ACAD_REACTORS
330
556
102
}
330
556
100
AcDbXrecord
280
     1
102
ACAD_MATT_HEIGHT
140
2.000000029802321
  0
XRECORD
  5
5B7
102
{ACAD_REACTORS
330
558
102
}
330
558
100
AcDbXrecord
280
     1
 70
     4
 70
     0
 70
     0
 40
1.0
  2
Departement
  1
Embedded Object
 10
110.6
 20
141.0241925130958
 30
0.0
 40
2.000000029802321
 41
18.45803981954006
 46
0.0
 71
     4
 72
     5
  1
FAR-Marketing
  7
Text Style40
 73
     1
 44
1.0
  0
XRECORD
  5
5B6
102
{ACAD_REACTORS
330
558
102
}
330
558
100
AcDbXrecord
280
     1
102
ACAD_MATT_HEIGHT
140
2.000000029802321
  0
XRECORD
  5
56D
102
{ACAD_REACTORS
330
3C2
102
}
330
3C2
100
AcDbXrecord
280
     1
 70
     2
 70
     0
 70
     0
 40
1.0
  2
Title
  1
Embedded Object
 10
122.0
 20
30.75000000000005
 30
0.0
 40
5.0
 41
89.14362202638884
 46
0.0
 71
     4
 72
     5
  1
Siebablaufventil DN 32
  7
Text Style20
 73
     1
 44
1.0
  0
XRECORD
  5
56C
102
{ACAD_REACTORS
330
3C2
102
}
330
3C2
100
AcDbXrecord
280
     1
102
ACAD_MATT_HEIGHT
140
5.0
  0
XRECORD
  5
56F
102
{ACAD_REACTORS
330
3C5
102
}
330
3C5
100
AcDbXrecord
280
     1
 70
     2
 70
     0
 70
     0
 40
1.0
  2
Auxiliary_Remark1
  1
Embedded Object
 10
122.0
 20
24.25000000000004
 30
0.0
 40
3.499999940395355
 41
88.8588638187849
 46
0.0
 71
     4
 72
     5
  1
ZANMW901
  7
Text Style9
 73
     1
 44
1.0
  0
XRECORD
  5
56E
102
{ACAD_REACTORS
330
3C5
102
}
330
3C5
100
AcDbXrecord
280
     1
102
ACAD_MATT_HEIGHT
140
3.499999940395355
  0
XRECORD
  5
571
102
{ACAD_REACTORS
330
3C8
102
}
330
3C8
100
AcDbXrecord
280
     1
 70
     2
 70
     0
 70
     0
 40
1.0
  2
Auxiliary_Remark2
  1
Embedded Object
 10
122.0
 20
17.75000000000005
 30
0.0
 40
3.499999940395355
 41
88.50560020660971
 46
0.0
 71
     4
 72
     5
  1
Marketingzeichnung
  7
Text Style9
 73
     1
 44
1.0
  0
XRECORD
  5
570
102
{ACAD_REACTORS
330
3C8
102
}
330
3C8
100
AcDbXrecord
280
     1
102
ACAD_MATT_HEIGHT
140
3.499999940395355
  0
XRECORD
  5
573
102
{ACAD_REACTORS
330
3CB
102
}
330
3CB
100
AcDbXrecord
280
     1
 70
     2
 70
     0
 70
     0
 40
1.0
  2
Part_number
  1
Embedded Object
 10
163.5
 20
45.75000000000003
 30
0.0
 40
2.5
 41
35.7212232739224
 46
0.0
 71
     4
 72
     5
  1
11002099
  7
Text Style38
 73
     1
 44
1.0
  0
XRECORD
  5
572
102
{ACAD_REACTORS
330
3CB
102
}
330
3CB
100
AcDbXrecord
280
     1
102
ACAD_MATT_HEIGHT
140
2.5
  0
XRECORD
  5
575
102
{ACAD_REACTORS
330
3CE
102
}
330
3CE
100
AcDbXrecord
280
     1
 70
     2
 70
     0
 70
     0
 40
1.0
  2
Document_Number
  1
Embedded Object
 10
133.4999999999999
 20
8.999999999999984
 30
0.0
 40
5.0
 41
45.26060067066413
 46
0.0
 71
     4
 72
     5
  1
0222-232513
  7
Text Style20
 73
     1
 44
1.0
  0
XRECORD
  5
574
102
{ACAD_REACTORS
330
3CE
102
}
330
3CE
100
AcDbXrecord
280
     1
102
ACAD_MATT_HEIGHT
140
5.0
  0
XRECORD
  5
577
102
{ACAD_REACTORS
330
3D1
102
}
330
3D1
100
AcDbXrecord
280
     1
 70
     2
 70
     0
 70
     0
 40
1.0
  2
Revision_Memo_1
  1
Embedded Object
 10
71.0
 20
42.75000000000002
 30
0.0
 40
2.000000029802321
 41
46.75017271010267
 46
0.0
 71
     1
 72
     5
  1

  7
Text Style40
 73
     1
 44
1.0
  0
XRECORD
  5
576
102
{ACAD_REACTORS
330
3D1
102
}
330
3D1
100
AcDbXrecord
280
     1
102
ACAD_MATT_HEIGHT
140
2.000000029802321
  0
XRECORD
  5
579
102
{ACAD_REACTORS
330
3D4
102
}
330
3D4
100
AcDbXrecord
280
     1
 70
     2
 70
     0
 70
     0
 40
1.0
  2
Revision_Index_1
  1
Embedded Object
 10
180.0
 20
8.999999999999932
 30
0.0
 40
5.0
 41
11.14714749717635
 46
0.0
 71
     4
 72
     5
  1
A
  7
Text Style20
 73
     1
 44
1.0
  0
XRECORD
  5
578
102
{ACAD_REACTORS
330
3D4
102
}
330
3D4
100
AcDbXrecord
280
     1
102
ACAD_MATT_HEIGHT
140
5.0
  0
XRECORD
  5
57B
102
{ACAD_REACTORS
330
3D7
102
}
330
3D7
100
AcDbXrecord
280
     1
 70
     2
 70
     0
 70
     0
 40
1.0
  2
Sheet_Size
  1
Embedded Object
 10
121.0
 20
8.999999999999984
 30
0.0
 40
5.0
 41
44.17438307011514
 46
0.0
 71
     4
 72
     5
  1
A4
  7
Text Style20
 73
     1
 44
1.0
  0
XRECORD
  5
57A
102
{ACAD_REACTORS
330
3D7
102
}
330
3D7
100
AcDbXrecord
280
     1
102
ACAD_MATT_HEIGHT
140
5.0
  0
XRECORD
  5
57D
102
{ACAD_REACTORS
330
3DA
102
}
330
3DA
100
AcDbXrecord
280
     1
 70
     2
 70
     0
 70
     0
 40
1.0
  2
Drawn_By
  1
Embedded Object
 10
5.999999999999976
 20
45.75000000000003
 30
0.0
 40
2.000000029802321
 41
14.31996733840145
 46
0.0
 71
     4
 72
     5
  1
Haken
  7
Text Style40
 73
     1
 44
1.0
  0
XRECORD
  5
57C
102
{ACAD_REACTORS
330
3DA
102
}
330
3DA
100
AcDbXrecord
280
     1
102
ACAD_MATT_HEIGHT
140
2.000000029802321
  0
XRECORD
  5
57F
102
{ACAD_REACTORS
330
3DD
102
}
330
3DD
100
AcDbXrecord
280
     1
 70
     2
 70
     0
 70
     0
 40
1.0
  2
Modified_By
  1
Embedded Object
 10
5.999999999999976
 20
38.25000000000006
 30
0.0
 40
2.000000029802321
 41
13.91658797675633
 46
0.0
 71
     4
 72
     5
  1

  7
Text Style40
 73
     1
 44
1.0
  0
XRECORD
  5
57E
102
{ACAD_REACTORS
330
3DD
102
}
330
3DD
100
AcDbXrecord
280
     1
102
ACAD_MATT_HEIGHT
140
2.000000029802321
  0
XRECORD
  5
581
102
{ACAD_REACTORS
330
3E0
102
}
330
3E0
100
AcDbXrecord
280
     1
 70
     2
 70
     0
 70
     0
 40
1.0
  2
Drawn_Date
  1
Embedded Object
 10
51.0
 20
45.75000000000003
 30
0.0
 40
2.000000029802321
 41
20.97572680554579
 46
0.0
 71
     4
 72
     5
  1
04.08.2011
  7
Text Style40
 73
     1
 44
1.0
  0
XRECORD
  5
580
102
{ACAD_REACTORS
330
3E0
102
}
330
3E0
100
AcDbXrecord
280
     1
102
ACAD_MATT_HEIGHT
140
2.000000029802321
  0
XRECORD
  5
583
102
{ACAD_REACTORS
330
3E3
102
}
330
3E3
100
AcDbXrecord
280
     1
 70
     2
 70
     0
 70
     0
 40
1.0
  2
Modified_Date
  1
Embedded Object
 10
51.0
 20
38.25000000000006
 30
0.0
 40
2.000000029802321
 41
20.16896808225555
 46
0.0
 71
     4
 72
     5
  1

  7
Text Style40
 73
     1
 44
1.0
  0
XRECORD
  5
582
102
{ACAD_REACTORS
330
3E3
102
}
330
3E3
100
AcDbXrecord
280
     1
102
ACAD_MATT_HEIGHT
140
2.000000029802321
  0
XRECORD
  5
585
102
{ACAD_REACTORS
330
3E6
102
}
330
3E6
100
AcDbXrecord
280
     1
 70
     2
 70
     0
 70
     0
 40
1.0
  2
Revision_Titel_1
  1
Embedded Object
 10
71.0
 20
45.75000000000001
 30
0.0
 40
2.000000029802321
 41
52.8572926113155
 46
0.0
 71
     4
 72
     5
  1

  7
Text Style40
 73
     1
 44
1.0
  0
XRECORD
  5
584
102
{ACAD_REACTORS
330
3E6
102
}
330
3E6
100
AcDbXrecord
280
     1
102
ACAD_MATT_HEIGHT
140
2.000000029802321
  0
XRECORD
  5
587
102
{ACAD_REACTORS
330
3E9
102
}
330
3E9
100
AcDbXrecord
280
     1
 70
     2
 70
     0
 70
     0
 40
1.0
  2
Sheet_number
  1
Embedded Object
 10
193.75
 20
8.999999999999932
 30
0.0
 40
5.0
 41
0.0
 46
0.0
 71
     5
 72
     5
  1
\W0.9000;5 
  7
Text__5.0mm
 73
     1
 44
1.0
  0
XRECORD
  5
586
102
{ACAD_REACTORS
330
3E9
102
}
330
3E9
100
AcDbXrecord
280
     1
102
ACAD_MATT_HEIGHT
140
5.0
  0
XRECORD
  5
589
102
{ACAD_REACTORS
330
3EC
102
}
330
3EC
100
AcDbXrecord
280
     1
 70
     2
 70
     0
 70
     0
 40
1.0
  2
Number_of_sheets
  1
Embedded Object
 10
201.25
 20
8.999999999999932
 30
0.0
 40
5.0
 41
0.0
 46
0.0
 71
     5
 72
     5
  1
\W0.9000;5 
  7
Text__5.0mm
 73
     1
 44
1.0
  0
XRECORD
  5
588
102
{ACAD_REACTORS
330
3EC
102
}
330
3EC
100
AcDbXrecord
280
     1
102
ACAD_MATT_HEIGHT
140
5.0
  0
XRECORD
  5
58B
102
{ACAD_REACTORS
330
3EF
102
}
330
3EF
100
AcDbXrecord
280
     1
 70
     2
 70
     0
 70
     0
 40
1.0
  2
FUN
  1
Embedded Object
 10
121.0
 20
38.25000000000004
 30
0.0
 40
2.5
 41
35.7212232739224
 46
0.0
 71
     4
 72
     5
  1

  7
Text Style38
 73
     1
 44
1.0
  0
XRECORD
  5
58A
102
{ACAD_REACTORS
330
3EF
102
}
330
3EF
100
AcDbXrecord
280
     1
102
ACAD_MATT_HEIGHT
140
2.5
  0
XRECORD
  5
58D
102
{ACAD_REACTORS
330
3F2
102
}
330
3F2
100
AcDbXrecord
280
     1
 70
     2
 70
     0
 70
     0
 40
1.0
  2
EAN
  1
Embedded Object
 10
163.5
 20
38.25000000000004
 30
0.0
 40
2.5
 41
35.7212232739224
 46
0.0
 71
     4
 72
     5
  1
7612982100178
  7
Text Style38
 73
     1
 44
1.0
  0
XRECORD
  5
58C
102
{ACAD_REACTORS
330
3F2
102
}
330
3F2
100
AcDbXrecord
280
     1
102
ACAD_MATT_HEIGHT
140
2.5
  0
XRECORD
  5
58F
102
{ACAD_REACTORS
330
3F5
102
}
330
3F5
100
AcDbXrecord
280
     1
 70
     2
 70
     0
 70
     0
 40
1.0
  2
Departement
  1
Embedded Object
 10
25.99999999999998
 20
38.25000000000006
 30
0.0
 40
2.000000029802321
 41
17.55611008168829
 46
0.0
 71
     4
 72
     5
  1
Marketing
  7
Text Style40
 73
     1
 44
1.0
  0
XRECORD
  5
58E
102
{ACAD_REACTORS
330
3F5
102
}
330
3F5
100
AcDbXrecord
280
     1
102
ACAD_MATT_HEIGHT
140
2.000000029802321
  0
XRECORD
  5
591
102
{ACAD_REACTORS
330
3F8
102
}
330
3F8
100
AcDbXrecord
280
     1
 70
     2
 70
     0
 70
     0
 40
1.0
  2
Departement
  1
Embedded Object
 10
25.99999999999998
 20
45.75000000000003
 30
0.0
 40
2.000000029802321
 41
18.45803981954006
 46
0.0
 71
     4
 72
     5
  1
Marketing
  7
Text Style40
 73
     1
 44
1.0
  0
XRECORD
  5
590
102
{ACAD_REACTORS
330
3F8
102
}
330
3F8
100
AcDbXrecord
280
     1
102
ACAD_MATT_HEIGHT
140
2.000000029802321
  0
ACDBDETAILVIEWSTYLE
  5
434
102
{ACAD_XDICTIONARY
360
5F7
102
}
102
{ACAD_REACTORS
330
433
102
}
330
433
100
AcDbModelDocViewStyle
 70
     0
  3
Metric50
290
     0
100
AcDbDetailViewStyle
 70
     0
 71
     0
 90
        3
 71
     1
340
60
 40
5.0
340
0
 40
5.0
300

 40
0.0
280
     1
 71
     2
340
68
 90
       25
 71
     3
340
60
 40
5.0
 90
        0
 40
15.0
 90
        1
300
%<\AcVar ViewDetailId>% (%<\AcVar ViewScale \f "%sn">%)
 71
     4
340
68
 90
       25
340
68
 90
       25
280
     0
  0
LAYOUT
  5
76
102
{ACAD_XDICTIONARY
360
5E1
102
}
102
{ACAD_REACTORS
330
6D
102
}
330
6D
100
AcDbPlotSettings
  1

  2

  4

  6

 40
0.0
 41
0.0
 42
0.0
 43
0.0
 44
0.0
 45
0.0
 46
0.0
 47
0.0
 48
0.0
 49
0.0
140
0.0
141
0.0
142
1.0
143
1.0
 70
   688
 72
     0
 73
     0
 74
     5
  7

 75
    16
147
1.0
148
0.0
149
0.0
100
AcDbLayout
  1
Layout1
 70
     1
 71
     1
 10
0.0
 20
0.0
 11
210.0
 21
297.0
 12
0.0
 22
0.0
 32
0.0
 14
0.0
 24
0.0
 34
0.0
 15
210.0
 25
297.0
 35
0.0
146
0.0
 13
0.0
 23
0.0
 33
0.0
 16
1.0
 26
0.0
 36
0.0
 17
0.0
 27
1.0
 37
0.0
 76
     0
330
73
  0
LAYOUT
  5
7E
102
{ACAD_XDICTIONARY
360
5E5
102
}
102
{ACAD_REACTORS
330
6D
102
}
330
6D
100
AcDbPlotSettings
  1

  2

  4

  6

 40
0.0
 41
0.0
 42
0.0
 43
0.0
 44
0.0
 45
0.0
 46
0.0
 47
0.0
 48
0.0
 49
0.0
140
0.0
141
0.0
142
1.0
143
1.0
 70
   688
 72
     0
 73
     0
 74
     5
  7

 75
    16
147
1.0
148
0.0
149
0.0
100
AcDbLayout
  1
Layout2
 70
     1
 71
     2
 10
0.0
 20
0.0
 11
12.0
 21
9.0
 12
0.0
 22
0.0
 32
0.0
 14
0.0
 24
0.0
 34
0.0
 15
0.0
 25
0.0
 35
0.0
146
0.0
 13
0.0
 23
0.0
 33
0.0
 16
1.0
 26
0.0
 36
0.0
 17
0.0
 27
1.0
 37
0.0
 76
     0
330
7B
  0
LAYOUT
  5
7A
102
{ACAD_XDICTIONARY
360
5E3
102
}
102
{ACAD_REACTORS
330
6D
102
}
330
6D
100
AcDbPlotSettings
  1

  2

  4

  6

 40
0.0
 41
0.0
 42
0.0
 43
0.0
 44
0.0
 45
0.0
 46
0.0
 47
0.0
 48
0.0
 49
0.0
140
0.0
141
0.0
142
1.0
143
1.0
 70
  1712
 72
     0
 73
     0
 74
     0
  7

 75
     0
147
1.0
148
0.0
149
0.0
100
AcDbLayout
  1
Model
 70
     1
 71
     0
 10
0.0
 20
0.0
 11
12.0
 21
9.0
 12
0.0
 22
0.0
 32
0.0
 14
0.0
 24
0.0
 34
0.0
 15
0.0
 25
0.0
 35
0.0
146
0.0
 13
0.0
 23
0.0
 33
0.0
 16
1.0
 26
0.0
 36
0.0
 17
0.0
 27
1.0
 37
0.0
 76
     0
330
77
331
62
  0
MATERIAL
  5
19
102
{ACAD_XDICTIONARY
360
1A
102
}
102
{ACAD_REACTORS
330
10
102
}
330
10
100
AcDbMaterial
  1
ByBlock
 72
     0
 43
0.0208333333333333
 43
0.0
 43
0.0
 43
0.0
 43
0.0
 43
0.0208333333333333
 43
0.0
 43
0.0
 43
0.0
 43
0.0
 43
1.0
 43
0.0
 43
0.0
 43
0.0
 43
0.0
 43
1.0
 77
     0
 47
0.0208333333333333
 47
0.0
 47
0.0
 47
0.0
 47
0.0
 47
0.0208333333333333
 47
0.0
 47
0.0
 47
0.0
 47
0.0
 47
1.0
 47
0.0
 47
0.0
 47
0.0
 47
0.0
 47
1.0
171
     0
 49
0.0208333333333333
 49
0.0
 49
0.0
 49
0.0
 49
0.0
 49
0.0208333333333333
 49
0.0
 49
0.0
 49
0.0
 49
0.0
 49
1.0
 49
0.0
 49
0.0
 49
0.0
 49
0.0
 49
1.0
175
     0
142
0.0208333333333333
142
0.0
142
0.0
142
0.0
142
0.0
142
0.0208333333333333
142
0.0
142
0.0
142
0.0
142
0.0
142
1.0
142
0.0
142
0.0
142
0.0
142
0.0
142
1.0
179
     0
144
0.0208333333333333
144
0.0
144
0.0
144
0.0
144
0.0
144
0.0208333333333333
144
0.0
144
0.0
144
0.0
144
0.0
144
1.0
144
0.0
144
0.0
144
0.0
144
0.0
144
1.0
147
0.0208333333333333
147
0.0
147
0.0
147
0.0
147
0.0
147
0.0208333333333333
147
0.0
147
0.0
147
0.0
147
0.0
147
1.0
147
0.0
147
0.0
147
0.0
147
0.0
147
1.0
  0
MATERIAL
  5
11
102
{ACAD_XDICTIONARY
360
12
102
}
102
{ACAD_REACTORS
330
10
102
}
330
10
100
AcDbMaterial
  1
ByLayer
 72
     0
 43
0.0208333333333333
 43
0.0
 43
0.0
 43
0.0
 43
0.0
 43
0.0208333333333333
 43
0.0
 43
0.0
 43
0.0
 43
0.0
 43
1.0
 43
0.0
 43
0.0
 43
0.0
 43
0.0
 43
1.0
 77
     0
 47
0.0208333333333333
 47
0.0
 47
0.0
 47
0.0
 47
0.0
 47
0.0208333333333333
 47
0.0
 47
0.0
 47
0.0
 47
0.0
 47
1.0
 47
0.0
 47
0.0
 47
0.0
 47
0.0
 47
1.0
171
     0
 49
0.0208333333333333
 49
0.0
 49
0.0
 49
0.0
 49
0.0
 49
0.0208333333333333
 49
0.0
 49
0.0
 49
0.0
 49
0.0
 49
1.0
 49
0.0
 49
0.0
 49
0.0
 49
0.0
 49
1.0
175
     0
142
0.0208333333333333
142
0.0
142
0.0
142
0.0
142
0.0
142
0.0208333333333333
142
0.0
142
0.0
142
0.0
142
0.0
142
1.0
142
0.0
142
0.0
142
0.0
142
0.0
142
1.0
179
     0
144
0.0208333333333333
144
0.0
144
0.0
144
0.0
144
0.0
144
0.0208333333333333
144
0.0
144
0.0
144
0.0
144
0.0
144
1.0
144
0.0
144
0.0
144
0.0
144
0.0
144
1.0
147
0.0208333333333333
147
0.0
147
0.0
147
0.0
147
0.0
147
0.0208333333333333
147
0.0
147
0.0
147
0.0
147
0.0
147
1.0
147
0.0
147
0.0
147
0.0
147
0.0
147
1.0
  0
MATERIAL
  5
21
102
{ACAD_XDICTIONARY
360
22
102
}
102
{ACAD_REACTORS
330
10
102
}
330
10
100
AcDbMaterial
  1
Global
 72
     0
 43
0.0208333333333333
 43
0.0
 43
0.0
 43
0.0
 43
0.0
 43
0.0208333333333333
 43
0.0
 43
0.0
 43
0.0
 43
0.0
 43
1.0
 43
0.0
 43
0.0
 43
0.0
 43
0.0
 43
1.0
 77
     0
 47
0.0208333333333333
 47
0.0
 47
0.0
 47
0.0
 47
0.0
 47
0.0208333333333333
 47
0.0
 47
0.0
 47
0.0
 47
0.0
 47
1.0
 47
0.0
 47
0.0
 47
0.0
 47
0.0
 47
1.0
171
     0
 49
0.0208333333333333
 49
0.0
 49
0.0
 49
0.0
 49
0.0
 49
0.0208333333333333
 49
0.0
 49
0.0
 49
0.0
 49
0.0
 49
1.0
 49
0.0
 49
0.0
 49
0.0
 49
0.0
 49
1.0
175
     0
142
0.0208333333333333
142
0.0
142
0.0
142
0.0
142
0.0
142
0.0208333333333333
142
0.0
142
0.0
142
0.0
142
0.0
142
1.0
142
0.0
142
0.0
142
0.0
142
0.0
142
1.0
179
     0
144
0.0208333333333333
144
0.0
144
0.0
144
0.0
144
0.0
144
0.0208333333333333
144
0.0
144
0.0
144
0.0
144
0.0
144
1.0
144
0.0
144
0.0
144
0.0
144
0.0
144
1.0
147
0.0208333333333333
147
0.0
147
0.0
147
0.0
147
0.0
147
0.0208333333333333
147
0.0
147
0.0
147
0.0
147
0.0
147
1.0
147
0.0
147
0.0
147
0.0
147
0.0
147
1.0
  0
MLEADERSTYLE
  5
72
102
{ACAD_REACTORS
330
71
102
}
330
71
100
AcDbMLeaderStyle
170
     2
171
     1
172
     0
 90
        2
 40
0.0
 41
0.0
173
     1
 91
-1056964608
340
66
 92
       -2
290
     1
 42
0.09
291
     1
 43
0.36
  3
Standard
 44
0.18
300

342
60
174
     1
178
     6
175
     1
176
     0
 93
-1056964608
 45
0.18
292
     0
297
     0
 46
0.18
 94
-1056964608
 47
1.0
 49
1.0
140
1.0
293
     1
141
0.0
294
     1
177
     0
142
1.0
295
     0
296
     0
143
0.125
1001
ACAD_MLEADERVER
1070
     2
  0
MLINESTYLE
  5
6B
102
{ACAD_REACTORS
330
6A
102
}
330
6A
100
AcDbMlineStyle
  2
STANDARD
 70
     0
  3

 62
   256
 51
90.0
 52
90.0
 71
     2
 49
0.5
 62
   256
  6
BYLAYER
 49
-0.5
 62
   256
  6
BYLAYER
  0
ACDBPLACEHOLDER
  5
F
102
{ACAD_REACTORS
330
E
102
}
330
E
  0
SCALE
  5
3E
102
{ACAD_REACTORS
330
3D
102
}
330
3D
100
AcDbScale
 70
     0
300
1:1
140
1.0
141
1.0
290
     1
  0
SCALE
  5
3F
102
{ACAD_REACTORS
330
3D
102
}
330
3D
100
AcDbScale
 70
     0
300
1:2
140
1.0
141
2.0
290
     0
  0
SCALE
  5
40
102
{ACAD_REACTORS
330
3D
102
}
330
3D
100
AcDbScale
 70
     0
300
1:4
140
1.0
141
4.0
290
     0
  0
SCALE
  5
41
102
{ACAD_REACTORS
330
3D
102
}
330
3D
100
AcDbScale
 70
     0
300
1:5
140
1.0
141
5.0
290
     0
  0
SCALE
  5
42
102
{ACAD_REACTORS
330
3D
102
}
330
3D
100
AcDbScale
 70
     0
300
1:8
140
1.0
141
8.0
290
     0
  0
SCALE
  5
43
102
{ACAD_REACTORS
330
3D
102
}
330
3D
100
AcDbScale
 70
     0
300
1:10
140
1.0
141
10.0
290
     0
  0
SCALE
  5
44
102
{ACAD_REACTORS
330
3D
102
}
330
3D
100
AcDbScale
 70
     0
300
1:16
140
1.0
141
16.0
290
     0
  0
SCALE
  5
45
102
{ACAD_REACTORS
330
3D
102
}
330
3D
100
AcDbScale
 70
     0
300
1:20
140
1.0
141
20.0
290
     0
  0
SCALE
  5
46
102
{ACAD_REACTORS
330
3D
102
}
330
3D
100
AcDbScale
 70
     0
300
1:30
140
1.0
141
30.0
290
     0
  0
SCALE
  5
47
102
{ACAD_REACTORS
330
3D
102
}
330
3D
100
AcDbScale
 70
     0
300
1:40
140
1.0
141
40.0
290
     0
  0
SCALE
  5
48
102
{ACAD_REACTORS
330
3D
102
}
330
3D
100
AcDbScale
 70
     0
300
1:50
140
1.0
141
50.0
290
     0
  0
SCALE
  5
49
102
{ACAD_REACTORS
330
3D
102
}
330
3D
100
AcDbScale
 70
     0
300
1:100
140
1.0
141
100.0
290
     0
  0
SCALE
  5
4A
102
{ACAD_REACTORS
330
3D
102
}
330
3D
100
AcDbScale
 70
     0
300
2:1
140
2.0
141
1.0
290
     0
  0
SCALE
  5
4B
102
{ACAD_REACTORS
330
3D
102
}
330
3D
100
AcDbScale
 70
     0
300
4:1
140
4.0
141
1.0
290
     0
  0
SCALE
  5
4C
102
{ACAD_REACTORS
330
3D
102
}
330
3D
100
AcDbScale
 70
     0
300
8:1
140
8.0
141
1.0
290
     0
  0
SCALE
  5
4D
102
{ACAD_REACTORS
330
3D
102
}
330
3D
100
AcDbScale
 70
     0
300
10:1
140
10.0
141
1.0
290
     0
  0
SCALE
  5
4E
102
{ACAD_REACTORS
330
3D
102
}
330
3D
100
AcDbScale
 70
     0
300
100:1
140
100.0
141
1.0
290
     0
  0
SCALE
  5
4F
102
{ACAD_REACTORS
330
3D
102
}
330
3D
100
AcDbScale
 70
     0
300
1/128" = 1'-0"
140
0.0078125
141
12.0
290
     0
  0
SCALE
  5
50
102
{ACAD_REACTORS
330
3D
102
}
330
3D
100
AcDbScale
 70
     0
300
1/64" = 1'-0"
140
0.015625
141
12.0
290
     0
  0
SCALE
  5
51
102
{ACAD_REACTORS
330
3D
102
}
330
3D
100
AcDbScale
 70
     0
300
1/32" = 1'-0"
140
0.03125
141
12.0
290
     0
  0
SCALE
  5
52
102
{ACAD_REACTORS
330
3D
102
}
330
3D
100
AcDbScale
 70
     0
300
1/16" = 1'-0"
140
0.0625
141
12.0
290
     0
  0
SCALE
  5
53
102
{ACAD_REACTORS
330
3D
102
}
330
3D
100
AcDbScale
 70
     0
300
3/32" = 1'-0"
140
0.09375
141
12.0
290
     0
  0
SCALE
  5
54
102
{ACAD_REACTORS
330
3D
102
}
330
3D
100
AcDbScale
 70
     0
300
1/8" = 1'-0"
140
0.125
141
12.0
290
     0
  0
SCALE
  5
55
102
{ACAD_REACTORS
330
3D
102
}
330
3D
100
AcDbScale
 70
     0
300
3/16" = 1'-0"
140
0.1875
141
12.0
290
     0
  0
SCALE
  5
56
102
{ACAD_REACTORS
330
3D
102
}
330
3D
100
AcDbScale
 70
     0
300
1/4" = 1'-0"
140
0.25
141
12.0
290
     0
  0
SCALE
  5
57
102
{ACAD_REACTORS
330
3D
102
}
330
3D
100
AcDbScale
 70
     0
300
3/8" = 1'-0"
140
0.375
141
12.0
290
     0
  0
SCALE
  5
58
102
{ACAD_REACTORS
330
3D
102
}
330
3D
100
AcDbScale
 70
     0
300
1/2" = 1'-0"
140
0.5
141
12.0
290
     0
  0
SCALE
  5
59
102
{ACAD_REACTORS
330
3D
102
}
330
3D
100
AcDbScale
 70
     0
300
3/4" = 1'-0"
140
0.75
141
12.0
290
     0
  0
SCALE
  5
5A
102
{ACAD_REACTORS
330
3D
102
}
330
3D
100
AcDbScale
 70
     0
300
1" = 1'-0"
140
1.0
141
12.0
290
     0
  0
SCALE
  5
5B
102
{ACAD_REACTORS
330
3D
102
}
330
3D
100
AcDbScale
 70
     0
300
1-1/2" = 1'-0"
140
1.5
141
12.0
290
     0
  0
SCALE
  5
5C
102
{ACAD_REACTORS
330
3D
102
}
330
3D
100
AcDbScale
 70
     0
300
3" = 1'-0"
140
3.0
141
12.0
290
     0
  0
SCALE
  5
5D
102
{ACAD_REACTORS
330
3D
102
}
330
3D
100
AcDbScale
 70
     0
300
6" = 1'-0"
140
6.0
141
12.0
290
     0
  0
SCALE
  5
5E
102
{ACAD_REACTORS
330
3D
102
}
330
3D
100
AcDbScale
 70
     0
300
1'-0" = 1'-0"
140
12.0
141
12.0
290
     0
  0
ACDBSECTIONVIEWSTYLE
  5
432
102
{ACAD_XDICTIONARY
360
5F5
102
}
102
{ACAD_REACTORS
330
431
102
}
330
431
100
AcDbModelDocViewStyle
 70
     0
  3
Metric50
290
     0
100
AcDbSectionViewStyle
 70
     0
 71
     0
 90
      102
 71
     1
340
60
 40
5.0
340
0
340
0
 40
5.0
300
I, O, Q, S, X, Z
 40
10.0
 90
        0
 40
2.5
 90
        0
 71
     2
340
68
 90
       25
340
68
 90
       50
 40
5.0
 40
2.5
 40
5.0
 71
     3
340
60
 40
5.0
 90
        0
 40
15.0
 90
        1
300
%<\AcVar ViewSectionStartId>%-%<\AcVar ViewSectionEndId>% (%<\AcVar ViewScale \f "%sn">%)
 71
     4
300
ANSI31
 40
1.0
 90
        0
290
     0
290
     0
 90
        6
 40
0.0
 40
1.570796326794896
 40
0.2617993877991494
 40
1.308996938995747
 40
-0.2617993877991494
 40
1.832595714594046
  0
TABLESTYLE
  5
70
102
{ACAD_XDICTIONARY
360
383
102
}
102
{ACAD_REACTORS
330
6F
102
}
330
6F
100
AcDbTableStyle
  3
Standard
 70
     0
 71
     0
 40
0.06
 41
0.06
280
     0
281
     0
  7
Standard
140
0.18
170
     2
 62
     0
 63
     7
283
     0
274
    -2
284
     1
 64
     0
275
    -2
285
     1
 65
     0
276
    -2
286
     1
 66
     0
277
    -2
287
     1
 67
     0
278
    -2
288
     1
 68
     0
279
    -2
289
     1
 69
     0
  7
Standard
140
0.25
170
     5
 62
     0
 63
     7
283
     0
274
    -2
284
     1
 64
     0
275
    -2
285
     1
 65
     0
276
    -2
286
     1
 66
     0
277
    -2
287
     1
 67
     0
278
    -2
288
     1
 68
     0
279
    -2
289
     1
 69
     0
  7
Standard
140
0.18
170
     5
 62
     0
 63
     7
283
     0
274
    -2
284
     1
 64
     0
275
    -2
285
     1
 65
     0
276
    -2
286
     1
 66
     0
277
    -2
287
     1
 67
     0
278
    -2
288
     1
 68
     0
279
    -2
289
     1
 69
     0
  0
VISUALSTYLE
  5
2F
102
{ACAD_XDICTIONARY
360
5C4
102
}
102
{ACAD_REACTORS
330
29
102
}
330
29
100
AcDbVisualStyle
  2

 70
     4
 71
     0
 72
     2
 73
     0
 90
        0
 40
-0.6
 41
-30.0
 62
     5
 63
     7
 74
     1
 91
        4
 64
     7
 65
   257
 75
     1
175
     1
 42
1.0
 92
        0
 66
   257
 43
1.0
 76
     1
 77
     6
 78
     2
 67
     7
 79
     5
170
     0
171
     0
290
     0
174
     0
 93
        1
 44
0.0
173
     0
291
     0
 45
0.0
1001
ACAD
1000
AcDbSavedByObjectVersion
1070
     0
  0
VISUALSTYLE
  5
31
102
{ACAD_XDICTIONARY
360
5C8
102
}
102
{ACAD_REACTORS
330
29
102
}
330
29
100
AcDbVisualStyle
  2

 70
     6
 71
     1
 72
     2
 73
     2
 90
        0
 40
-0.6
 41
-30.0
 62
     5
 63
     7
 74
     2
 91
        2
 64
     7
 65
   257
 75
     2
175
     1
 42
179.0
 92
        0
 66
   257
 43
1.0
 76
     1
 77
     6
 78
     2
 67
     7
 79
     3
170
     0
171
     0
290
     0
174
     0
 93
        1
 44
0.0
173
     0
291
     0
 45
0.0
1001
ACAD
1000
AcDbSavedByObjectVersion
1070
     0
  0
VISUALSTYLE
  5
30
102
{ACAD_XDICTIONARY
360
5C6
102
}
102
{ACAD_REACTORS
330
29
102
}
330
29
100
AcDbVisualStyle
  2

 70
     5
 71
     0
 72
     2
 73
     0
 90
        0
 40
-0.6
 41
-30.0
 62
     5
 63
     7
 74
     1
 91
        4
 64
     7
 65
   257
 75
     1
175
     1
 42
1.0
 92
        0
 66
   257
 43
1.0
 76
     1
 77
     6
 78
     2
 67
     7
 79
     5
170
     0
171
     0
290
     0
174
     0
 93
        1
 44
0.0
173
     0
291
     0
 45
0.0
1001
ACAD
1000
AcDbSavedByObjectVersion
1070
     0
  0
VISUALSTYLE
  5
2E
102
{ACAD_XDICTIONARY
360
5C2
102
}
102
{ACAD_REACTORS
330
29
102
}
330
29
100
AcDbVisualStyle
  2

 70
     7
 71
     1
 72
     0
 73
     1
 90
        0
 40
-0.6
 41
-30.0
 62
     5
 63
     7
 74
     0
 91
        4
 64
     7
 65
   257
 75
     1
175
     1
 42
1.0
 92
        8
 66
     7
 43
1.0
 76
     1
 77
     6
 78
     2
 67
     7
 79
     5
170
     0
171
     0
290
     0
174
     0
 93
        1
 44
0.0
173
     0
291
     1
 45
0.0
1001
ACAD
1000
AcDbSavedByObjectVersion
1070
     0
  0
VISUALSTYLE
  5
35
102
{ACAD_XDICTIONARY
360
5D0
102
}
102
{ACAD_REACTORS
330
29
102
}
330
29
100
AcDbVisualStyle
  2

 70
    12
 71
     2
 72
     2
 73
     0
 90
        0
 40
-0.6
 41
-30.0
 62
     5
 63
     7
 74
     1
 91
        4
 64
     7
 65
   257
 75
     1
175
     1
 42
1.0
 92
        8
 66
     7
 43
1.0
 76
     1
 77
     6
 78
     2
 67
     7
 79
     5
170
     0
171
     0
290
     0
174
     0
 93
        1
 44
50.0
173
     0
291
     1
 45
0.0
1001
ACAD
1000
AcDbSavedByObjectVersion
1070
     0
  0
VISUALSTYLE
  5
39
102
{ACAD_XDICTIONARY
360
5D8
102
}
102
{ACAD_REACTORS
330
29
102
}
330
29
100
AcDbVisualStyle
  2

 70
    16
 71
     2
 72
     2
 73
     3
 90
        0
 40
-0.6
 41
-30.0
 62
     5
 63
     8
 74
     1
 91
        4
 64
     7
 65
   257
 75
     1
175
     1
 42
1.0
 92
        8
 66
     8
 43
1.0
 76
     1
 77
     6
 78
     2
 67
     7
 79
     5
170
     0
171
     0
290
     0
174
     0
 93
        1
 44
0.0
173
     0
291
     1
 45
0.0
1001
ACAD
1000
AcDbSavedByObjectVersion
1070
     0
  0
VISUALSTYLE
  5
32
102
{ACAD_XDICTIONARY
360
5CA
102
}
102
{ACAD_REACTORS
330
29
102
}
330
29
100
AcDbVisualStyle
  2

 70
     9
 71
     3
 72
     2
 73
     0
 90
        0
 40
-0.6
 41
-30.0
 62
     5
 63
     7
 74
     2
 91
        2
 64
     7
 65
   257
 75
     1
175
     1
 42
179.0
 92
        8
 66
     7
 43
1.0
 76
     1
 77
     6
 78
     2
 67
     7
 79
     3
170
     0
171
     0
290
     0
174
     0
 93
        1
 44
0.0
173
     0
291
     0
 45
0.0
1001
ACAD
1000
AcDbSavedByObjectVersion
1070
     0
  0
VISUALSTYLE
  5
34
102
{ACAD_XDICTIONARY
360
5CE
102
}
102
{ACAD_REACTORS
330
29
102
}
330
29
100
AcDbVisualStyle
  2

 70
    11
 71
     2
 72
     2
 73
     0
 90
        0
 40
-0.6
 41
-30.0
 62
     5
 63
     7
 74
     1
 91
        4
 64
     7
 65
   257
 75
     1
175
     1
 42
1.0
 92
        8
 66
     7
 43
1.0
 76
     1
 77
     6
 78
     2
 67
     7
 79
     5
170
     0
171
     0
290
     0
174
     0
 93
        1
 44
-50.0
173
     0
291
     1
 45
0.0
1001
ACAD
1000
AcDbSavedByObjectVersion
1070
     0
  0
VISUALSTYLE
  5
3C
102
{ACAD_XDICTIONARY
360
5DE
102
}
102
{ACAD_REACTORS
330
29
102
}
330
29
100
AcDbVisualStyle
  2

 70
    22
 71
     2
 72
     2
 73
     0
 90
        0
 40
-0.6
 41
-30.0
 62
     5
 63
     7
 74
     1
 91
        4
 64
     7
 65
   257
 75
     1
175
     1
 42
1.0
 92
        8
 66
     7
 43
1.0
 76
     1
 77
     6
 78
     2
 67
     7
 79
     5
170
     0
171
     0
290
     0
174
     0
 93
        1
 44
0.0
173
     0
291
     1
 45
0.0
1001
ACAD
1000
AcDbSavedByObjectVersion
1070
     0
  0
VISUALSTYLE
  5
38
102
{ACAD_XDICTIONARY
360
5D6
102
}
102
{ACAD_REACTORS
330
29
102
}
330
29
100
AcDbVisualStyle
  2

 70
    15
 71
     2
 72
     2
 73
     0
 90
        0
 40
-0.6
 41
-30.0
 62
     5
 63
     7
 74
     1
 91
        4
 64
     7
 65
   257
 75
     1
175
     1
 42
1.0
 92
        8
 66
     7
 43
1.0
 76
     1
 77
     6
 78
     2
 67
     7
 79
     5
170
     0
171
     0
290
     0
174
     0
 93
        1
 44
0.0
173
     0
291
     1
 45
0.0
1001
ACAD
1000
AcDbSavedByObjectVersion
1070
     0
  0
VISUALSTYLE
  5
2A
102
{ACAD_XDICTIONARY
360
5BA
102
}
102
{ACAD_REACTORS
330
29
102
}
330
29
100
AcDbVisualStyle
  2

 70
     0
 71
     2
 72
     1
 73
     1
 90
        2
 40
-0.6
 41
30.0
 62
     5
 63
     7
 74
     0
 91
        4
 64
     7
 65
   257
 75
     1
175
     1
 42
1.0
 92
        8
 66
     7
 43
1.0
 76
     1
 77
     6
 78
     2
 67
     7
 79
     5
170
     0
171
     0
290
     0
174
     0
 93
       13
 44
0.0
173
     0
291
     1
 45
0.0
1001
ACAD
1000
AcDbSavedByObjectVersion
1070
     0
  0
VISUALSTYLE
  5
2B
102
{ACAD_XDICTIONARY
360
5BC
102
}
102
{ACAD_REACTORS
330
29
102
}
330
29
100
AcDbVisualStyle
  2

 70
     1
 71
     2
 72
     1
 73
     1
 90
        2
 40
-0.6
 41
30.0
 62
     5
 63
     7
 74
     1
 91
        4
 64
     7
 65
   257
 75
     1
175
     1
 42
1.0
 92
        0
 66
   257
 43
1.0
 76
     1
 77
     6
 78
     2
 67
     7
 79
     5
170
     0
171
     0
290
     0
174
     0
 93
       13
 44
0.0
173
     0
291
     1
 45
0.0
1001
ACAD
1000
AcDbSavedByObjectVersion
1070
     0
  0
VISUALSTYLE
  5
2C
102
{ACAD_XDICTIONARY
360
5BE
102
}
102
{ACAD_REACTORS
330
29
102
}
330
29
100
AcDbVisualStyle
  2

 70
     2
 71
     2
 72
     2
 73
     1
 90
        2
 40
-0.6
 41
30.0
 62
     5
 63
     7
 74
     0
 91
        4
 64
     7
 65
   257
 75
     1
175
     1
 42
1.0
 92
        0
 66
     7
 43
1.0
 76
     1
 77
     6
 78
     2
 67
     7
 79
     5
170
     0
171
     0
290
     0
174
     0
 93
       13
 44
0.0
173
     0
291
     1
 45
0.0
1001
ACAD
1000
AcDbSavedByObjectVersion
1070
     0
  0
VISUALSTYLE
  5
2D
102
{ACAD_XDICTIONARY
360
5C0
102
}
102
{ACAD_REACTORS
330
29
102
}
330
29
100
AcDbVisualStyle
  2

 70
     3
 71
     2
 72
     2
 73
     1
 90
        2
 40
-0.6
 41
30.0
 62
     5
 63
     7
 74
     1
 91
        4
 64
     7
 65
   257
 75
     1
175
     1
 42
1.0
 92
        0
 66
   257
 43
1.0
 76
     1
 77
     6
 78
     2
 67
     7
 79
     5
170
     0
171
     0
290
     0
174
     0
 93
       13
 44
0.0
173
     0
291
     1
 45
0.0
1001
ACAD
1000
AcDbSavedByObjectVersion
1070
     0
  0
VISUALSTYLE
  5
42B
102
{ACAD_XDICTIONARY
360
5E9
102
}
102
{ACAD_REACTORS
330
29
102
}
330
29
100
AcDbVisualStyle
  2
Hidden
 70
     6
 71
     1
 72
     2
 73
     2
 90
        0
 40
-0.6
 41
-30.0
 62
     5
 63
     7
 74
     2
 91
        2
 64
     7
 65
   257
 75
     2
175
     1
 42
40.0
 92
        0
 66
   257
 43
1.0
 76
     1
 77
     6
 78
     2
 67
     7
 79
     3
170
     0
171
     0
290
     0
174
     0
 93
        1
 44
0.0
173
     0
291
     0
 45
0.0
1001
ACAD
1000
AcDbSavedByObjectVersion
1070
     0
  0
VISUALSTYLE
  5
3A
102
{ACAD_XDICTIONARY
360
5DA
102
}
102
{ACAD_REACTORS
330
29
102
}
330
29
100
AcDbVisualStyle
  2

 70
    20
 71
     2
 72
     2
 73
     0
 90
        0
 40
-0.6
 41
-30.0
 62
     5
 63
     7
 74
     1
 91
        4
 64
     7
 65
   257
 75
     1
175
     1
 42
1.0
 92
       10
 66
     7
 43
1.0
 76
     1
 77
     6
 78
     2
 67
     7
 79
     5
170
     0
171
     0
290
     0
174
     0
 93
        1
 44
0.0
173
     0
291
     1
 45
0.0
1001
ACAD
1000
AcDbSavedByObjectVersion
1070
     0
  0
VISUALSTYLE
  5
37
102
{ACAD_XDICTIONARY
360
5D4
102
}
102
{ACAD_REACTORS
330
29
102
}
330
29
100
AcDbVisualStyle
  2

 70
    14
 71
     2
 72
     2
 73
     0
 90
        0
 40
-0.6
 41
-30.0
 62
     5
 63
     7
 74
     1
 91
        4
 64
     7
 65
   257
 75
     7
175
     7
 42
1.0
 92
        8
 66
     7
 43
1.0
 76
     1
 77
     6
 78
     2
 67
     7
 79
     5
170
     0
171
     0
290
     0
174
     0
 93
        1
 44
0.0
173
     0
291
     1
 45
0.0
1001
ACAD
1000
AcDbSavedByObjectVersion
1070
     0
  0
VISUALSTYLE
  5
3B
102
{ACAD_XDICTIONARY
360
5DC
102
}
102
{ACAD_REACTORS
330
29
102
}
330
29
100
AcDbVisualStyle
  2

 70
    21
 71
     2
 72
     2
 73
     0
 90
        0
 40
-0.6
 41
-30.0
 62
     5
 63
     7
 74
     1
 91
        4
 64
     7
 65
   257
 75
     1
175
     1
 42
1.0
 92
        9
 66
     7
 43
1.0
 76
     1
 77
     6
 78
     2
 67
     7
 79
     5
170
     0
171
     0
290
     0
174
     0
 93
        1
 44
0.0
173
     0
291
     1
 45
0.0
1001
ACAD
1000
AcDbSavedByObjectVersion
1070
     0
  0
VISUALSTYLE
  5
33
102
{ACAD_XDICTIONARY
360
5CC
102
}
102
{ACAD_REACTORS
330
29
102
}
330
29
100
AcDbVisualStyle
  2

 70
     8
 71
     2
 72
     2
 73
     0
 90
        0
 40
-0.6
 41
-30.0
 62
     5
 63
     7
 74
     1
 91
        0
 64
     7
 65
   257
 75
     1
175
     1
 42
1.0
 92
        8
 66
     8
 43
1.0
 76
     1
 77
     6
 78
     2
 67
     7
 79
     5
170
     0
171
     0
290
     0
174
     0
 93
       13
 44
0.0
173
     0
291
     0
 45
0.0
1001
ACAD
1000
AcDbSavedByObjectVersion
1070
     0
  0
VISUALSTYLE
  5
430
102
{ACAD_XDICTIONARY
360
5F3
102
}
102
{ACAD_REACTORS
330
29
102
}
330
29
100
AcDbVisualStyle
  2
Shaded
 70
    27
 71
     2
 72
     2
 73
     1
 90
        2
 40
-0.6
 41
30.0
 62
     5
 63
     7
 74
     0
 91
        4
 64
     7
 65
   257
 75
     1
175
     1
 42
1.0
 92
        8
 66
   257
 43
1.0
 76
     1
 77
     6
 78
     2
 67
     8
 79
     3
170
     0
171
     0
290
     0
174
     0
 93
        5
 44
0.0
173
     0
291
     0
 45
0.0
1001
ACAD
1000
AcDbSavedByObjectVersion
1070
     0
  0
VISUALSTYLE
  5
42F
102
{ACAD_XDICTIONARY
360
5F1
102
}
102
{ACAD_REACTORS
330
29
102
}
330
29
100
AcDbVisualStyle
  2
Shaded with edges
 70
    26
 71
     2
 72
     2
 73
     1
 90
        2
 40
-0.6
 41
30.0
 62
     5
 63
     7
 74
     1
 91
        2
 64
     7
 65
   257
 75
     2
175
     1
 42
1.0
 92
        8
 66
   257
 43
1.0
 76
     1
 77
     6
 78
     2
 67
     7
 79
     3
170
     0
171
     0
290
     0
174
     0
 93
        5
 44
0.0
173
     0
291
     0
 45
0.0
1001
ACAD
1000
AcDbSavedByObjectVersion
1070
     0
  0
VISUALSTYLE
  5
42C
102
{ACAD_XDICTIONARY
360
5EB
102
}
102
{ACAD_REACTORS
330
29
102
}
330
29
100
AcDbVisualStyle
  2
Shades of Gray
 70
    23
 71
     2
 72
     2
 73
     3
 90
        0
 40
-0.6
 41
-30.0
 62
     5
 63
     7
 74
     2
 91
        2
 64
     7
 65
     7
 75
     1
175
     1
 42
40.0
 92
        8
 66
     7
 43
1.0
 76
     1
 77
     6
 78
     2
 67
     7
 79
     3
170
     0
171
     0
290
     0
174
     0
 93
        1
 44
0.0
173
     0
291
     0
 45
0.0
1001
ACAD
1000
AcDbSavedByObjectVersion
1070
     0
  0
VISUALSTYLE
  5
42D
102
{ACAD_XDICTIONARY
360
5ED
102
}
102
{ACAD_REACTORS
330
29
102
}
330
29
100
AcDbVisualStyle
  2
Sketchy
 70
    24
 71
     1
 72
     2
 73
     2
 90
        0
 40
-0.6
 41
-30.0
 62
     5
 63
     7
 74
     2
 91
        2
 64
     7
 65
     7
 75
     1
175
     1
 42
40.0
 92
       11
 66
     7
 43
1.0
 76
     1
 77
     6
 78
     2
 67
     7
 79
     6
170
     0
171
     0
290
     0
174
     0
 93
        1
 44
0.0
173
     0
291
     0
 45
0.0
1001
ACAD
1000
AcDbSavedByObjectVersion
1070
     0
  0
VISUALSTYLE
  5
36
102
{ACAD_XDICTIONARY
360
5D2
102
}
102
{ACAD_REACTORS
330
29
102
}
330
29
100
AcDbVisualStyle
  2

 70
    13
 71
     2
 72
     2
 73
     0
 90
        0
 40
-0.6
 41
-30.0
 62
     5
 63
     7
 74
     1
 91
        4
 64
     7
 65
   257
 75
     1
175
     1
 42
1.0
 92
       12
 66
     7
 43
1.0
 76
     1
 77
     6
 78
     2
 67
     7
 79
     5
170
     0
171
     0
290
     0
174
     0
 93
        1
 44
0.0
173
     0
291
     1
 45
0.0
1001
ACAD
1000
AcDbSavedByObjectVersion
1070
     0
  0
VISUALSTYLE
  5
42A
102
{ACAD_XDICTIONARY
360
5E7
102
}
102
{ACAD_REACTORS
330
29
102
}
330
29
100
AcDbVisualStyle
  2
Wireframe
 70
     5
 71
     0
 72
     2
 73
     0
 90
        0
 40
-0.6
 41
-30.0
 62
     5
 63
     7
 74
     1
 91
        4
 64
     7
 65
   257
 75
     1
175
     1
 42
1.0
 92
        0
 66
   257
 43
1.0
 76
     1
 77
     6
 78
     2
 67
     7
 79
     3
170
     0
171
     0
290
     0
174
     0
 93
        1
 44
0.0
173
     0
291
     0
 45
0.0
1001
ACAD
1000
AcDbSavedByObjectVersion
1070
     0
  0
VISUALSTYLE
  5
42E
102
{ACAD_XDICTIONARY
360
5EF
102
}
102
{ACAD_REACTORS
330
29
102
}
330
29
100
AcDbVisualStyle
  2
X-Ray
 70
    25
 71
     2
 72
     2
 73
     1
 90
        1
 40
0.5
 41
-30.0
 62
     5
 63
     7
 74
     1
 91
        0
 64
     7
 65
   257
 75
     1
175
     1
 42
1.0
 92
        8
 66
     7
 43
1.0
 76
     1
 77
     6
 78
     2
 67
     7
 79
     3
170
     0
171
     0
290
     0
174
     0
 93
       13
 44
0.0
173
     0
291
     0
 45
0.0
1001
ACAD
1000
AcDbSavedByObjectVersion
1070
     0
  0
DICTIONARYVAR
  5
37E
102
{ACAD_REACTORS
330
37A
102
}
330
37A
100
DictionaryVariables
280
     0
  1
1:1
  0
DICTIONARYVAR
  5
37C
102
{ACAD_REACTORS
330
37A
102
}
330
37A
100
DictionaryVariables
280
     0
  1
STANDARD
  0
DICTIONARYVAR
  5
37B
102
{ACAD_REACTORS
330
37A
102
}
330
37A
100
DictionaryVariables
280
     0
  1
STANDARD
  0
DICTIONARYVAR
  5
560
102
{ACAD_REACTORS
330
37A
102
}
330
37A
100
DictionaryVariables
280
     0
  1
Metric50
  0
DICTIONARYVAR
  5
561
102
{ACAD_REACTORS
330
37A
102
}
330
37A
100
DictionaryVariables
280
     0
  1
Metric50
  0
DICTIONARYVAR
  5
565
102
{ACAD_REACTORS
330
37A
102
}
330
37A
100
DictionaryVariables
280
     0
  1
1
  0
DICTIONARYVAR
  5
564
102
{ACAD_REACTORS
330
37A
102
}
330
37A
100
DictionaryVariables
280
     0
  1
1
  0
DICTIONARYVAR
  5
563
102
{ACAD_REACTORS
330
37A
102
}
330
37A
100
DictionaryVariables
280
     0
  1
0
  0
DICTIONARYVAR
  5
380
102
{ACAD_REACTORS
330
37A
102
}
330
37A
100
DictionaryVariables
280
     0
  1
0
  0
DICTIONARYVAR
  5
381
102
{ACAD_REACTORS
330
37A
102
}
330
37A
100
DictionaryVariables
280
     0
  1
0
  0
DICTIONARYVAR
  5
37F
102
{ACAD_REACTORS
330
37A
102
}
330
37A
100
DictionaryVariables
280
     0
  1
2
  0
DICTIONARYVAR
  5
37D
102
{ACAD_REACTORS
330
37A
102
}
330
37A
100
DictionaryVariables
280
     0
  1
1
  0
DICTIONARYVAR
  5
562
102
{ACAD_REACTORS
330
37A
102
}
330
37A
100
DictionaryVariables
280
     0
  1
127
  0
DICTIONARYVAR
  5
566
102
{ACAD_REACTORS
330
37A
102
}
330
37A
100
DictionaryVariables
280
     0
  1
2
  0
DICTIONARY
  5
5F7
330
434
100
AcDbDictionary
280
     1
281
     1
  3
ACAD_XREC_ROUNDTRIP
360
5F8
  0
DICTIONARY
  5
5E1
330
76
100
AcDbDictionary
280
     1
281
     1
  3
ACAD_XREC_ROUNDTRIP
360
5E2
  0
DICTIONARY
  5
5E5
330
7E
100
AcDbDictionary
280
     1
281
     1
  3
ACAD_XREC_ROUNDTRIP
360
5E6
  0
DICTIONARY
  5
5E3
330
7A
100
AcDbDictionary
280
     1
281
     1
  3
ACAD_XREC_ROUNDTRIP
360
5E4
  0
DICTIONARY
  5
1A
330
19
100
AcDbDictionary
280
     1
281
     1
  3
ACAD_XREC_ROUNDTRIP
360
3FD
  3
BUMPTILE
360
1C
  3
DIFFUSETILE
360
1B
  3
OPACITYTILE
360
1F
  3
REFLECTIONTILE
360
1E
  3
REFRACTIONTILE
360
20
  3
SPECULARTILE
360
1D
  0
DICTIONARY
  5
12
330
11
100
AcDbDictionary
280
     1
281
     1
  3
ACAD_XREC_ROUNDTRIP
360
3FC
  3
BUMPTILE
360
14
  3
DIFFUSETILE
360
13
  3
OPACITYTILE
360
17
  3
REFLECTIONTILE
360
16
  3
REFRACTIONTILE
360
18
  3
SPECULARTILE
360
15
  0
DICTIONARY
  5
22
330
21
100
AcDbDictionary
280
     1
281
     1
  3
ACAD_XREC_ROUNDTRIP
360
3FE
  3
BUMPTILE
360
24
  3
DIFFUSETILE
360
23
  3
OPACITYTILE
360
27
  3
REFLECTIONTILE
360
26
  3
REFRACTIONTILE
360
28
  3
SPECULARTILE
360
25
  0
DICTIONARY
  5
5F5
330
432
100
AcDbDictionary
280
     1
281
     1
  3
ACAD_XREC_ROUNDTRIP
360
5F6
  0
DICTIONARY
  5
383
330
70
100
AcDbDictionary
280
     1
281
     1
  3
ACAD_ROUNDTRIP_2008_TABLESTYLE_CELLSTYLEMAP
360
568
  3
ACAD_XREC_ROUNDTRIP
360
5E0
  0
DICTIONARY
  5
5C4
330
2F
100
AcDbDictionary
280
     1
281
     1
  3
ACAD_XREC_ROUNDTRIP
360
5C5
  0
DICTIONARY
  5
5C8
330
31
100
AcDbDictionary
280
     1
281
     1
  3
ACAD_XREC_ROUNDTRIP
360
5C9
  0
DICTIONARY
  5
5C6
330
30
100
AcDbDictionary
280
     1
281
     1
  3
ACAD_XREC_ROUNDTRIP
360
5C7
  0
DICTIONARY
  5
5C2
330
2E
100
AcDbDictionary
280
     1
281
     1
  3
ACAD_XREC_ROUNDTRIP
360
5C3
  0
DICTIONARY
  5
5D0
330
35
100
AcDbDictionary
280
     1
281
     1
  3
ACAD_XREC_ROUNDTRIP
360
5D1
  0
DICTIONARY
  5
5D8
330
39
100
AcDbDictionary
280
     1
281
     1
  3
ACAD_XREC_ROUNDTRIP
360
5D9
  0
DICTIONARY
  5
5CA
330
32
100
AcDbDictionary
280
     1
281
     1
  3
ACAD_XREC_ROUNDTRIP
360
5CB
  0
DICTIONARY
  5
5CE
330
34
100
AcDbDictionary
280
     1
281
     1
  3
ACAD_XREC_ROUNDTRIP
360
5CF
  0
DICTIONARY
  5
5DE
330
3C
100
AcDbDictionary
280
     1
281
     1
  3
ACAD_XREC_ROUNDTRIP
360
5DF
  0
DICTIONARY
  5
5D6
330
38
100
AcDbDictionary
280
     1
281
     1
  3
ACAD_XREC_ROUNDTRIP
360
5D7
  0
DICTIONARY
  5
5BA
330
2A
100
AcDbDictionary
280
     1
281
     1
  3
ACAD_XREC_ROUNDTRIP
360
5BB
  0
DICTIONARY
  5
5BC
330
2B
100
AcDbDictionary
280
     1
281
     1
  3
ACAD_XREC_ROUNDTRIP
360
5BD
  0
DICTIONARY
  5
5BE
330
2C
100
AcDbDictionary
280
     1
281
     1
  3
ACAD_XREC_ROUNDTRIP
360
5BF
  0
DICTIONARY
  5
5C0
330
2D
100
AcDbDictionary
280
     1
281
     1
  3
ACAD_XREC_ROUNDTRIP
360
5C1
  0
DICTIONARY
  5
5E9
330
42B
100
AcDbDictionary
280
     1
281
     1
  3
ACAD_XREC_ROUNDTRIP
360
5EA
  0
DICTIONARY
  5
5DA
330
3A
100
AcDbDictionary
280
     1
281
     1
  3
ACAD_XREC_ROUNDTRIP
360
5DB
  0
DICTIONARY
  5
5D4
330
37
100
AcDbDictionary
280
     1
281
     1
  3
ACAD_XREC_ROUNDTRIP
360
5D5
  0
DICTIONARY
  5
5DC
330
3B
100
AcDbDictionary
280
     1
281
     1
  3
ACAD_XREC_ROUNDTRIP
360
5DD
  0
DICTIONARY
  5
5CC
330
33
100
AcDbDictionary
280
     1
281
     1
  3
ACAD_XREC_ROUNDTRIP
360
5CD
  0
DICTIONARY
  5
5F3
330
430
100
AcDbDictionary
280
     1
281
     1
  3
ACAD_XREC_ROUNDTRIP
360
5F4
  0
DICTIONARY
  5
5F1
330
42F
100
AcDbDictionary
280
     1
281
     1
  3
ACAD_XREC_ROUNDTRIP
360
5F2
  0
DICTIONARY
  5
5EB
330
42C
100
AcDbDictionary
280
     1
281
     1
  3
ACAD_XREC_ROUNDTRIP
360
5EC
  0
DICTIONARY
  5
5ED
330
42D
100
AcDbDictionary
280
     1
281
     1
  3
ACAD_XREC_ROUNDTRIP
360
5EE
  0
DICTIONARY
  5
5D2
330
36
100
AcDbDictionary
280
     1
281
     1
  3
ACAD_XREC_ROUNDTRIP
360
5D3
  0
DICTIONARY
  5
5E7
330
42A
100
AcDbDictionary
280
     1
281
     1
  3
ACAD_XREC_ROUNDTRIP
360
5E8
  0
DICTIONARY
  5
5EF
330
42E
100
AcDbDictionary
280
     1
281
     1
  3
ACAD_XREC_ROUNDTRIP
360
5F0
  0
XRECORD
  5
5F8
102
{ACAD_REACTORS
330
5F7
102
}
330
5F7
100
AcDbXrecord
280
     1
102
DISPLAYNAME
  1
Metric50
102
FLAGS
 90
        0
  0
XRECORD
  5
5E2
102
{ACAD_REACTORS
330
5E1
102
}
330
5E1
100
AcDbXrecord
280
     1
102
SHADEPLOT
 70
     0
102
SHADEPLOTRESLEVEL
 70
     2
102
SHADEPLOTCUSTOMDPI
 70
   300
  0
XRECORD
  5
5E6
102
{ACAD_REACTORS
330
5E5
102
}
330
5E5
100
AcDbXrecord
280
     1
102
SHADEPLOT
 70
     0
102
SHADEPLOTRESLEVEL
 70
     2
102
SHADEPLOTCUSTOMDPI
 70
   300
  0
XRECORD
  5
5E4
102
{ACAD_REACTORS
330
5E3
102
}
330
5E3
100
AcDbXrecord
280
     1
102
SHADEPLOT
 70
     0
102
SHADEPLOTRESLEVEL
 70
     2
102
SHADEPLOTCUSTOMDPI
 70
   300
  0
XRECORD
  5
3FD
102
{ACAD_REACTORS
330
1A
102
}
330
1A
100
AcDbXrecord
280
     1
102
MATERIAL
148
0.0
149
0.0
149
0.0
 93
        0
 94
      127
282
     0
 72
     0
 77
     0
171
     0
175
     0
179
     0
273
     0
  0
XRECORD
  5
1C
102
{ACAD_REACTORS
330
1A
102
}
330
1A
100
AcDbXrecord
280
     1
270
     1
271
     1
  0
XRECORD
  5
1B
102
{ACAD_REACTORS
330
1A
102
}
330
1A
100
AcDbXrecord
280
     1
270
     1
271
     1
  0
XRECORD
  5
1F
102
{ACAD_REACTORS
330
1A
102
}
330
1A
100
AcDbXrecord
280
     1
270
     1
271
     1
  0
XRECORD
  5
1E
102
{ACAD_REACTORS
330
1A
102
}
330
1A
100
AcDbXrecord
280
     1
270
     1
271
     1
  0
XRECORD
  5
20
102
{ACAD_REACTORS
330
1A
102
}
330
1A
100
AcDbXrecord
280
     1
270
     1
271
     1
  0
XRECORD
  5
1D
102
{ACAD_REACTORS
330
1A
102
}
330
1A
100
AcDbXrecord
280
     1
270
     1
271
     1
  0
XRECORD
  5
3FC
102
{ACAD_REACTORS
330
12
102
}
330
12
100
AcDbXrecord
280
     1
102
MATERIAL
148
0.0
149
0.0
149
0.0
 93
        0
 94
      127
282
     0
 72
     0
 77
     0
171
     0
175
     0
179
     0
273
     0
  0
XRECORD
  5
14
102
{ACAD_REACTORS
330
12
102
}
330
12
100
AcDbXrecord
280
     1
270
     1
271
     1
  0
XRECORD
  5
13
102
{ACAD_REACTORS
330
12
102
}
330
12
100
AcDbXrecord
280
     1
270
     1
271
     1
  0
XRECORD
  5
17
102
{ACAD_REACTORS
330
12
102
}
330
12
100
AcDbXrecord
280
     1
270
     1
271
     1
  0
XRECORD
  5
16
102
{ACAD_REACTORS
330
12
102
}
330
12
100
AcDbXrecord
280
     1
270
     1
271
     1
  0
XRECORD
  5
18
102
{ACAD_REACTORS
330
12
102
}
330
12
100
AcDbXrecord
280
     1
270
     1
271
     1
  0
XRECORD
  5
15
102
{ACAD_REACTORS
330
12
102
}
330
12
100
AcDbXrecord
280
     1
270
     1
271
     1
  0
XRECORD
  5
3FE
102
{ACAD_REACTORS
330
22
102
}
330
22
100
AcDbXrecord
280
     1
102
MATERIAL
148
0.0
149
0.0
149
0.0
 93
        0
 94
      127
282
     0
 72
     0
 77
     0
171
     0
175
     0
179
     0
273
     0
  0
XRECORD
  5
24
102
{ACAD_REACTORS
330
22
102
}
330
22
100
AcDbXrecord
280
     1
270
     1
271
     1
  0
XRECORD
  5
23
102
{ACAD_REACTORS
330
22
102
}
330
22
100
AcDbXrecord
280
     1
270
     1
271
     1
  0
XRECORD
  5
27
102
{ACAD_REACTORS
330
22
102
}
330
22
100
AcDbXrecord
280
     1
270
     1
271
     1
  0
XRECORD
  5
26
102
{ACAD_REACTORS
330
22
102
}
330
22
100
AcDbXrecord
280
     1
270
     1
271
     1
  0
XRECORD
  5
28
102
{ACAD_REACTORS
330
22
102
}
330
22
100
AcDbXrecord
280
     1
270
     1
271
     1
  0
XRECORD
  5
25
102
{ACAD_REACTORS
330
22
102
}
330
22
100
AcDbXrecord
280
     1
270
     1
271
     1
  0
XRECORD
  5
5F6
102
{ACAD_REACTORS
330
5F5
102
}
330
5F5
100
AcDbXrecord
280
     1
102
DISPLAYNAME
  1
Metric50
102
FLAGS
 90
        0
  0
CELLSTYLEMAP
  5
568
102
{ACAD_REACTORS
330
383
102
}
330
383
100
AcDbCellStyleMap
 90
        3
300
CELLSTYLE
  1
TABLEFORMAT_BEGIN
 90
        5
170
     1
 91
        0
 92
    32768
 62
   257
 93
        1
300
CONTENTFORMAT
  1
CONTENTFORMAT_BEGIN
 90
        0
 91
        0
 92
      512
 93
        0
300

 40
0.0
140
1.0
 94
        5
 62
     0
340
60
144
0.25
309
CONTENTFORMAT_END
171
     1
301
MARGIN
  1
CELLMARGIN_BEGIN
 40
0.06
 40
0.06
 40
0.06
 40
0.06
 40
0.18
 40
0.18
309
CELLMARGIN_END
 94
        6
 95
        1
302
GRIDFORMAT
  1
GRIDFORMAT_BEGIN
 90
        0
 91
        1
 62
     0
 92
       -2
340
0
 93
        0
 40
0.045
309
GRIDFORMAT_END
 95
        2
302
GRIDFORMAT
  1
GRIDFORMAT_BEGIN
 90
        0
 91
        1
 62
     0
 92
       -2
340
0
 93
        0
 40
0.045
309
GRIDFORMAT_END
 95
        4
302
GRIDFORMAT
  1
GRIDFORMAT_BEGIN
 90
        0
 91
        1
 62
     0
 92
       -2
340
0
 93
        0
 40
0.045
309
GRIDFORMAT_END
 95
        8
302
GRIDFORMAT
  1
GRIDFORMAT_BEGIN
 90
        0
 91
        1
 62
     0
 92
       -2
340
0
 93
        0
 40
0.045
309
GRIDFORMAT_END
 95
       16
302
GRIDFORMAT
  1
GRIDFORMAT_BEGIN
 90
        0
 91
        1
 62
     0
 92
       -2
340
0
 93
        0
 40
0.045
309
GRIDFORMAT_END
 95
       32
302
GRIDFORMAT
  1
GRIDFORMAT_BEGIN
 90
        0
 91
        1
 62
     0
 92
       -2
340
0
 93
        0
 40
0.045
309
GRIDFORMAT_END
309
TABLEFORMAT_END
  1
CELLSTYLE_BEGIN
 90
        1
 91
        1
300
_TITLE
309
CELLSTYLE_END
300
CELLSTYLE
  1
TABLEFORMAT_BEGIN
 90
        5
170
     1
 91
        0
 92
        0
 62
   257
 93
        1
300
CONTENTFORMAT
  1
CONTENTFORMAT_BEGIN
 90
        0
 91
        0
 92
      512
 93
        0
300

 40
0.0
140
1.0
 94
        5
 62
     0
340
60
144
0.18
309
CONTENTFORMAT_END
171
     1
301
MARGIN
  1
CELLMARGIN_BEGIN
 40
0.06
 40
0.06
 40
0.06
 40
0.06
 40
0.18
 40
0.18
309
CELLMARGIN_END
 94
        6
 95
        1
302
GRIDFORMAT
  1
GRIDFORMAT_BEGIN
 90
        0
 91
        1
 62
     0
 92
       -2
340
0
 93
        0
 40
0.045
309
GRIDFORMAT_END
 95
        2
302
GRIDFORMAT
  1
GRIDFORMAT_BEGIN
 90
        0
 91
        1
 62
     0
 92
       -2
340
0
 93
        0
 40
0.045
309
GRIDFORMAT_END
 95
        4
302
GRIDFORMAT
  1
GRIDFORMAT_BEGIN
 90
        0
 91
        1
 62
     0
 92
       -2
340
0
 93
        0
 40
0.045
309
GRIDFORMAT_END
 95
        8
302
GRIDFORMAT
  1
GRIDFORMAT_BEGIN
 90
        0
 91
        1
 62
     0
 92
       -2
340
0
 93
        0
 40
0.045
309
GRIDFORMAT_END
 95
       16
302
GRIDFORMAT
  1
GRIDFORMAT_BEGIN
 90
        0
 91
        1
 62
     0
 92
       -2
340
0
 93
        0
 40
0.045
309
GRIDFORMAT_END
 95
       32
302
GRIDFORMAT
  1
GRIDFORMAT_BEGIN
 90
        0
 91
        1
 62
     0
 92
       -2
340
0
 93
        0
 40
0.045
309
GRIDFORMAT_END
309
TABLEFORMAT_END
  1
CELLSTYLE_BEGIN
 90
        2
 91
        1
300
_HEADER
309
CELLSTYLE_END
300
CELLSTYLE
  1
TABLEFORMAT_BEGIN
 90
        5
170
     1
 91
        0
 92
        0
 62
   257
 93
        1
300
CONTENTFORMAT
  1
CONTENTFORMAT_BEGIN
 90
        0
 91
        0
 92
      512
 93
        0
300

 40
0.0
140
1.0
 94
        2
 62
     0
340
60
144
0.18
309
CONTENTFORMAT_END
171
     1
301
MARGIN
  1
CELLMARGIN_BEGIN
 40
0.06
 40
0.06
 40
0.06
 40
0.06
 40
0.18
 40
0.18
309
CELLMARGIN_END
 94
        6
 95
        1
302
GRIDFORMAT
  1
GRIDFORMAT_BEGIN
 90
        0
 91
        1
 62
     0
 92
       -2
340
0
 93
        0
 40
0.045
309
GRIDFORMAT_END
 95
        2
302
GRIDFORMAT
  1
GRIDFORMAT_BEGIN
 90
        0
 91
        1
 62
     0
 92
       -2
340
0
 93
        0
 40
0.045
309
GRIDFORMAT_END
 95
        4
302
GRIDFORMAT
  1
GRIDFORMAT_BEGIN
 90
        0
 91
        1
 62
     0
 92
       -2
340
0
 93
        0
 40
0.045
309
GRIDFORMAT_END
 95
        8
302
GRIDFORMAT
  1
GRIDFORMAT_BEGIN
 90
        0
 91
        1
 62
     0
 92
       -2
340
0
 93
        0
 40
0.045
309
GRIDFORMAT_END
 95
       16
302
GRIDFORMAT
  1
GRIDFORMAT_BEGIN
 90
        0
 91
        1
 62
     0
 92
       -2
340
0
 93
        0
 40
0.045
309
GRIDFORMAT_END
 95
       32
302
GRIDFORMAT
  1
GRIDFORMAT_BEGIN
 90
        0
 91
        1
 62
     0
 92
       -2
340
0
 93
        0
 40
0.045
309
GRIDFORMAT_END
309
TABLEFORMAT_END
  1
CELLSTYLE_BEGIN
 90
        3
 91
        2
300
_DATA
309
CELLSTYLE_END
  0
XRECORD
  5
5E0
102
{ACAD_REACTORS
330
383
102
}
330
383
100
AcDbXrecord
280
     1
102
ACAD_ROUNDTRIP_PRE2007_TABLESTYLE
 90
      512
 91
        0
  1

 92
      512
 93
        0
  2

 94
      512
 95
        0
  3

  0
XRECORD
  5
5C5
102
{ACAD_REACTORS
330
5C4
102
}
330
5C4
100
AcDbXrecord
280
     1
102
RTVSPost2010Prop28
280
     1
102
RTVSPost2010PropOp28
 70
     1
102
RTVSPost2010Prop29
280
     1
102
RTVSPost2010PropOp29
 70
     1
102
RTVSPost2010Prop30
280
     0
102
RTVSPost2010PropOp30
 70
     1
102
RTVSPost2010Prop31
280
     0
102
RTVSPost2010PropOp31
 70
     1
102
RTVSPost2010Prop32
280
     0
102
RTVSPost2010PropOp32
 70
     1
102
RTVSPost2010Prop33
280
     0
102
RTVSPost2010PropOp33
 70
     1
102
RTVSPost2010Prop34
280
     0
102
RTVSPost2010PropOp34
 70
     1
102
RTVSPost2010Prop35
280
     0
102
RTVSPost2010PropOp35
 70
     1
102
RTVSPost2010Prop36
280
     0
102
RTVSPost2010PropOp36
 70
     1
102
RTVSPost2010Prop37
 90
       50
102
RTVSPost2010PropOp37
 70
     1
102
RTVSPost2010Prop38
140
0.0
102
RTVSPost2010PropOp38
 70
     1
102
RTVSPost2010Prop39
140
1.0
102
RTVSPost2010PropOp39
 70
     1
102
RTVSPost2010Prop40
 90
        0
102
RTVSPost2010PropOp40
 70
     1
102
RTVSPost2010Prop41ColorIndex
 90
       18
102
RTVSPost2010Prop41ColorRGB
 90
        0
102
RTVSPost2010PropOp41
 70
     1
102
RTVSPost2010Prop42
 90
       50
102
RTVSPost2010PropOp42
 70
     1
102
RTVSPost2010Prop43
 90
        3
102
RTVSPost2010PropOp43
 70
     1
102
RTVSPost2010Prop44ColorIndex
 90
        5
102
RTVSPost2010Prop44ColorRGB
 90
      255
102
RTVSPost2010PropOp44
 70
     1
102
RTVSPost2010Prop45
280
     0
102
RTVSPost2010PropOp45
 70
     1
102
RTVSPost2010Prop46
 90
       50
102
RTVSPost2010PropOp46
 70
     1
102
RTVSPost2010Prop47
 90
       50
102
RTVSPost2010PropOp47
 70
     1
102
RTVSPost2010Prop48
 90
       50
102
RTVSPost2010PropOp48
 70
     1
102
RTVSPost2010Prop49
280
     0
102
RTVSPost2010PropOp49
 70
     1
102
RTVSPost2010Prop50
 90
       50
102
RTVSPost2010PropOp50
 70
     1
102
RTVSPost2010Prop51ColorIndex
 90
      256
102
RTVSPost2010Prop51ColorRGB
 90
-16777216
102
RTVSPost2010PropOp51
 70
     0
102
RTVSPost2010Prop52
140
1.0
102
RTVSPost2010PropOp52
 70
     0
102
RTVSPost2010Prop53
 90
        2
102
RTVSPost2010PropOp53
 70
     1
102
RTVSPost2010Prop54
  1
strokes_ogs.tif
102
RTVSPost2010PropOp54
 70
     1
102
RTVSPost2010Prop55
280
     0
102
RTVSPost2010PropOp55
 70
     1
102
RTVSPost2010Prop56
140
1.0
102
RTVSPost2010PropOp56
 70
     1
102
RTVSPost2010Prop57
140
1.0
102
RTVSPost2010PropOp57
 70
     1
102
RTVSPropertyOp0
 70
     1
102
RTVSPropertyOp1
 70
     1
102
RTVSPropertyOp2
 70
     1
102
RTVSPropertyOp3
 70
     1
102
RTVSPropertyOp4
 70
     1
102
RTVSPropertyOp5
 70
     1
102
RTVSPropertyOp6
 70
     1
102
RTVSPropertyOp7
 70
     1
102
RTVSPropertyOp8
 70
     1
102
RTVSPropertyOp9
 70
     1
102
RTVSPropertyOp10
 70
     1
102
RTVSPropertyOp11
 70
     1
102
RTVSPropertyOp12
 70
     1
102
RTVSPropertyOp13
 70
     1
102
RTVSPropertyOp14
 70
     1
102
RTVSPropertyOp15
 70
     1
102
RTVSPropertyOp16
 70
     1
102
RTVSPropertyOp17
 70
     1
102
RTVSPropertyOp18
 70
     1
102
RTVSPropertyOp19
 70
     1
102
RTVSPropertyOp20
 70
     1
102
RTVSPropertyOp21
 70
     1
102
RTVSPropertyOp22
 70
     1
102
RTVSPropertyOp23
 70
     1
102
RTVSPropertyOp24
 70
     1
102
RTVSPropertyOp25
 70
     1
102
RTVSPropertyOp26
 70
     1
102
RTVSPropertyOp27
 70
     1
102
RTVSPropertyOp28
 70
     1
102
RTVSPropertyOp29
 70
     1
102
RTVSPropertyOp30
 70
     1
102
RTVSPropertyOp31
 70
     1
102
RTVSPropertyOp32
 70
     1
102
RTVSPropertyOp33
 70
     1
102
RTVSPropertyOp34
 70
     1
102
RTVSPropertyOp35
 70
     1
102
RTVSPropertyOp36
 70
     1
102
RTVSPropertyOp37
 70
     1
102
RTVSPropertyOp38
 70
     1
102
RTVSPropertyOp39
 70
     1
102
RTVSPropertyOp40
 70
     1
102
RTVSPropertyOp41
 70
     1
102
RTVSPropertyOp42
 70
     1
102
RTVSPropertyOp43
 70
     1
102
RTVSPropertyOp44
 70
     1
102
RTVSPropertyOp45
 70
     1
102
RTVSPropertyOp46
 70
     1
102
RTVSPropertyOp47
 70
     1
102
RTVSPropertyOp48
 70
     1
102
RTVSPropertyOp49
 70
     1
102
RTVSPropertyOp50
 70
     1
102
RTVSPropertyOp51
 70
     0
102
RTVSPropertyOp52
 70
     0
102
RTVSPropertyOp53
 70
     1
102
RTVSPropertyOp54
 70
     1
102
RTVSPropertyOp55
 70
     1
102
RTVSPropertyOp56
 70
     1
102
RTVSPropertyOp57
 70
     1
102
RTVSPropertyOp58
 70
     1
102
RTVSPropertyOp59
 70
     1
102
RTVSPropertyOp60
 70
     1
102
RTVSPropertyOp61
 70
     1
102
RTVSPropertyOp62
 70
     1
  0
XRECORD
  5
5C9
102
{ACAD_REACTORS
330
5C8
102
}
330
5C8
100
AcDbXrecord
280
     1
102
RTVSPost2010Prop28
280
     0
102
RTVSPost2010PropOp28
 70
     1
102
RTVSPost2010Prop29
280
     1
102
RTVSPost2010PropOp29
 70
     1
102
RTVSPost2010Prop30
280
     1
102
RTVSPost2010PropOp30
 70
     1
102
RTVSPost2010Prop31
280
     0
102
RTVSPost2010PropOp31
 70
     1
102
RTVSPost2010Prop32
280
     0
102
RTVSPost2010PropOp32
 70
     1
102
RTVSPost2010Prop33
280
     0
102
RTVSPost2010PropOp33
 70
     1
102
RTVSPost2010Prop34
280
     0
102
RTVSPost2010PropOp34
 70
     1
102
RTVSPost2010Prop35
280
     0
102
RTVSPost2010PropOp35
 70
     1
102
RTVSPost2010Prop36
280
     0
102
RTVSPost2010PropOp36
 70
     1
102
RTVSPost2010Prop37
 90
       50
102
RTVSPost2010PropOp37
 70
     1
102
RTVSPost2010Prop38
140
0.0
102
RTVSPost2010PropOp38
 70
     1
102
RTVSPost2010Prop39
140
1.0
102
RTVSPost2010PropOp39
 70
     1
102
RTVSPost2010Prop40
 90
        0
102
RTVSPost2010PropOp40
 70
     1
102
RTVSPost2010Prop41ColorIndex
 90
       18
102
RTVSPost2010Prop41ColorRGB
 90
        0
102
RTVSPost2010PropOp41
 70
     1
102
RTVSPost2010Prop42
 90
       50
102
RTVSPost2010PropOp42
 70
     1
102
RTVSPost2010Prop43
 90
        3
102
RTVSPost2010PropOp43
 70
     1
102
RTVSPost2010Prop44ColorIndex
 90
        5
102
RTVSPost2010Prop44ColorRGB
 90
      255
102
RTVSPost2010PropOp44
 70
     1
102
RTVSPost2010Prop45
280
     0
102
RTVSPost2010PropOp45
 70
     1
102
RTVSPost2010Prop46
 90
       50
102
RTVSPost2010PropOp46
 70
     1
102
RTVSPost2010Prop47
 90
       50
102
RTVSPost2010PropOp47
 70
     1
102
RTVSPost2010Prop48
 90
       50
102
RTVSPost2010PropOp48
 70
     1
102
RTVSPost2010Prop49
280
     0
102
RTVSPost2010PropOp49
 70
     1
102
RTVSPost2010Prop50
 90
       50
102
RTVSPost2010PropOp50
 70
     1
102
RTVSPost2010Prop51ColorIndex
 90
      256
102
RTVSPost2010Prop51ColorRGB
 90
-16777216
102
RTVSPost2010PropOp51
 70
     0
102
RTVSPost2010Prop52
140
1.0
102
RTVSPost2010PropOp52
 70
     0
102
RTVSPost2010Prop53
 90
        2
102
RTVSPost2010PropOp53
 70
     1
102
RTVSPost2010Prop54
  1
strokes_ogs.tif
102
RTVSPost2010PropOp54
 70
     1
102
RTVSPost2010Prop55
280
     0
102
RTVSPost2010PropOp55
 70
     1
102
RTVSPost2010Prop56
140
1.0
102
RTVSPost2010PropOp56
 70
     1
102
RTVSPost2010Prop57
140
1.0
102
RTVSPost2010PropOp57
 70
     1
102
RTVSPropertyOp0
 70
     1
102
RTVSPropertyOp1
 70
     1
102
RTVSPropertyOp2
 70
     1
102
RTVSPropertyOp3
 70
     1
102
RTVSPropertyOp4
 70
     1
102
RTVSPropertyOp5
 70
     1
102
RTVSPropertyOp6
 70
     1
102
RTVSPropertyOp7
 70
     1
102
RTVSPropertyOp8
 70
     1
102
RTVSPropertyOp9
 70
     1
102
RTVSPropertyOp10
 70
     1
102
RTVSPropertyOp11
 70
     1
102
RTVSPropertyOp12
 70
     1
102
RTVSPropertyOp13
 70
     1
102
RTVSPropertyOp14
 70
     1
102
RTVSPropertyOp15
 70
     1
102
RTVSPropertyOp16
 70
     1
102
RTVSPropertyOp17
 70
     1
102
RTVSPropertyOp18
 70
     1
102
RTVSPropertyOp19
 70
     1
102
RTVSPropertyOp20
 70
     1
102
RTVSPropertyOp21
 70
     1
102
RTVSPropertyOp22
 70
     1
102
RTVSPropertyOp23
 70
     1
102
RTVSPropertyOp24
 70
     1
102
RTVSPropertyOp25
 70
     1
102
RTVSPropertyOp26
 70
     1
102
RTVSPropertyOp27
 70
     1
102
RTVSPropertyOp28
 70
     1
102
RTVSPropertyOp29
 70
     1
102
RTVSPropertyOp30
 70
     1
102
RTVSPropertyOp31
 70
     1
102
RTVSPropertyOp32
 70
     1
102
RTVSPropertyOp33
 70
     1
102
RTVSPropertyOp34
 70
     1
102
RTVSPropertyOp35
 70
     1
102
RTVSPropertyOp36
 70
     1
102
RTVSPropertyOp37
 70
     1
102
RTVSPropertyOp38
 70
     1
102
RTVSPropertyOp39
 70
     1
102
RTVSPropertyOp40
 70
     1
102
RTVSPropertyOp41
 70
     1
102
RTVSPropertyOp42
 70
     1
102
RTVSPropertyOp43
 70
     1
102
RTVSPropertyOp44
 70
     1
102
RTVSPropertyOp45
 70
     1
102
RTVSPropertyOp46
 70
     1
102
RTVSPropertyOp47
 70
     1
102
RTVSPropertyOp48
 70
     1
102
RTVSPropertyOp49
 70
     1
102
RTVSPropertyOp50
 70
     1
102
RTVSPropertyOp51
 70
     0
102
RTVSPropertyOp52
 70
     0
102
RTVSPropertyOp53
 70
     1
102
RTVSPropertyOp54
 70
     1
102
RTVSPropertyOp55
 70
     1
102
RTVSPropertyOp56
 70
     1
102
RTVSPropertyOp57
 70
     1
102
RTVSPropertyOp58
 70
     1
102
RTVSPropertyOp59
 70
     1
102
RTVSPropertyOp60
 70
     1
102
RTVSPropertyOp61
 70
     1
102
RTVSPropertyOp62
 70
     1
  0
XRECORD
  5
5C7
102
{ACAD_REACTORS
330
5C6
102
}
330
5C6
100
AcDbXrecord
280
     1
102
RTVSPost2010Prop28
280
     0
102
RTVSPost2010PropOp28
 70
     1
102
RTVSPost2010Prop29
280
     1
102
RTVSPost2010PropOp29
 70
     1
102
RTVSPost2010Prop30
280
     1
102
RTVSPost2010PropOp30
 70
     1
102
RTVSPost2010Prop31
280
     0
102
RTVSPost2010PropOp31
 70
     1
102
RTVSPost2010Prop32
280
     0
102
RTVSPost2010PropOp32
 70
     1
102
RTVSPost2010Prop33
280
     0
102
RTVSPost2010PropOp33
 70
     1
102
RTVSPost2010Prop34
280
     0
102
RTVSPost2010PropOp34
 70
     1
102
RTVSPost2010Prop35
280
     0
102
RTVSPost2010PropOp35
 70
     1
102
RTVSPost2010Prop36
280
     0
102
RTVSPost2010PropOp36
 70
     1
102
RTVSPost2010Prop37
 90
       50
102
RTVSPost2010PropOp37
 70
     1
102
RTVSPost2010Prop38
140
0.0
102
RTVSPost2010PropOp38
 70
     1
102
RTVSPost2010Prop39
140
1.0
102
RTVSPost2010PropOp39
 70
     1
102
RTVSPost2010Prop40
 90
        0
102
RTVSPost2010PropOp40
 70
     1
102
RTVSPost2010Prop41ColorIndex
 90
       18
102
RTVSPost2010Prop41ColorRGB
 90
        0
102
RTVSPost2010PropOp41
 70
     1
102
RTVSPost2010Prop42
 90
       50
102
RTVSPost2010PropOp42
 70
     1
102
RTVSPost2010Prop43
 90
        3
102
RTVSPost2010PropOp43
 70
     1
102
RTVSPost2010Prop44ColorIndex
 90
        5
102
RTVSPost2010Prop44ColorRGB
 90
      255
102
RTVSPost2010PropOp44
 70
     1
102
RTVSPost2010Prop45
280
     0
102
RTVSPost2010PropOp45
 70
     1
102
RTVSPost2010Prop46
 90
       50
102
RTVSPost2010PropOp46
 70
     1
102
RTVSPost2010Prop47
 90
       50
102
RTVSPost2010PropOp47
 70
     1
102
RTVSPost2010Prop48
 90
       50
102
RTVSPost2010PropOp48
 70
     1
102
RTVSPost2010Prop49
280
     0
102
RTVSPost2010PropOp49
 70
     1
102
RTVSPost2010Prop50
 90
       50
102
RTVSPost2010PropOp50
 70
     1
102
RTVSPost2010Prop51ColorIndex
 90
      256
102
RTVSPost2010Prop51ColorRGB
 90
-16777216
102
RTVSPost2010PropOp51
 70
     0
102
RTVSPost2010Prop52
140
1.0
102
RTVSPost2010PropOp52
 70
     0
102
RTVSPost2010Prop53
 90
        2
102
RTVSPost2010PropOp53
 70
     1
102
RTVSPost2010Prop54
  1
strokes_ogs.tif
102
RTVSPost2010PropOp54
 70
     1
102
RTVSPost2010Prop55
280
     0
102
RTVSPost2010PropOp55
 70
     1
102
RTVSPost2010Prop56
140
1.0
102
RTVSPost2010PropOp56
 70
     1
102
RTVSPost2010Prop57
140
1.0
102
RTVSPost2010PropOp57
 70
     1
102
RTVSPropertyOp0
 70
     1
102
RTVSPropertyOp1
 70
     1
102
RTVSPropertyOp2
 70
     1
102
RTVSPropertyOp3
 70
     1
102
RTVSPropertyOp4
 70
     1
102
RTVSPropertyOp5
 70
     1
102
RTVSPropertyOp6
 70
     1
102
RTVSPropertyOp7
 70
     1
102
RTVSPropertyOp8
 70
     1
102
RTVSPropertyOp9
 70
     1
102
RTVSPropertyOp10
 70
     1
102
RTVSPropertyOp11
 70
     1
102
RTVSPropertyOp12
 70
     1
102
RTVSPropertyOp13
 70
     1
102
RTVSPropertyOp14
 70
     1
102
RTVSPropertyOp15
 70
     1
102
RTVSPropertyOp16
 70
     1
102
RTVSPropertyOp17
 70
     1
102
RTVSPropertyOp18
 70
     1
102
RTVSPropertyOp19
 70
     1
102
RTVSPropertyOp20
 70
     1
102
RTVSPropertyOp21
 70
     1
102
RTVSPropertyOp22
 70
     1
102
RTVSPropertyOp23
 70
     1
102
RTVSPropertyOp24
 70
     1
102
RTVSPropertyOp25
 70
     1
102
RTVSPropertyOp26
 70
     1
102
RTVSPropertyOp27
 70
     1
102
RTVSPropertyOp28
 70
     1
102
RTVSPropertyOp29
 70
     1
102
RTVSPropertyOp30
 70
     1
102
RTVSPropertyOp31
 70
     1
102
RTVSPropertyOp32
 70
     1
102
RTVSPropertyOp33
 70
     1
102
RTVSPropertyOp34
 70
     1
102
RTVSPropertyOp35
 70
     1
102
RTVSPropertyOp36
 70
     1
102
RTVSPropertyOp37
 70
     1
102
RTVSPropertyOp38
 70
     1
102
RTVSPropertyOp39
 70
     1
102
RTVSPropertyOp40
 70
     1
102
RTVSPropertyOp41
 70
     1
102
RTVSPropertyOp42
 70
     1
102
RTVSPropertyOp43
 70
     1
102
RTVSPropertyOp44
 70
     1
102
RTVSPropertyOp45
 70
     1
102
RTVSPropertyOp46
 70
     1
102
RTVSPropertyOp47
 70
     1
102
RTVSPropertyOp48
 70
     1
102
RTVSPropertyOp49
 70
     1
102
RTVSPropertyOp50
 70
     1
102
RTVSPropertyOp51
 70
     0
102
RTVSPropertyOp52
 70
     0
102
RTVSPropertyOp53
 70
     1
102
RTVSPropertyOp54
 70
     1
102
RTVSPropertyOp55
 70
     1
102
RTVSPropertyOp56
 70
     1
102
RTVSPropertyOp57
 70
     1
102
RTVSPropertyOp58
 70
     1
102
RTVSPropertyOp59
 70
     1
102
RTVSPropertyOp60
 70
     1
102
RTVSPropertyOp61
 70
     1
102
RTVSPropertyOp62
 70
     1
  0
XRECORD
  5
5C3
102
{ACAD_REACTORS
330
5C2
102
}
330
5C2
100
AcDbXrecord
280
     1
102
RTVSPost2010Prop28
280
     0
102
RTVSPost2010PropOp28
 70
     1
102
RTVSPost2010Prop29
280
     1
102
RTVSPost2010PropOp29
 70
     1
102
RTVSPost2010Prop30
280
     1
102
RTVSPost2010PropOp30
 70
     1
102
RTVSPost2010Prop31
280
     0
102
RTVSPost2010PropOp31
 70
     1
102
RTVSPost2010Prop32
280
     0
102
RTVSPost2010PropOp32
 70
     1
102
RTVSPost2010Prop33
280
     0
102
RTVSPost2010PropOp33
 70
     1
102
RTVSPost2010Prop34
280
     0
102
RTVSPost2010PropOp34
 70
     1
102
RTVSPost2010Prop35
280
     0
102
RTVSPost2010PropOp35
 70
     1
102
RTVSPost2010Prop36
280
     0
102
RTVSPost2010PropOp36
 70
     1
102
RTVSPost2010Prop37
 90
       50
102
RTVSPost2010PropOp37
 70
     1
102
RTVSPost2010Prop38
140
0.0
102
RTVSPost2010PropOp38
 70
     1
102
RTVSPost2010Prop39
140
1.0
102
RTVSPost2010PropOp39
 70
     1
102
RTVSPost2010Prop40
 90
        0
102
RTVSPost2010PropOp40
 70
     1
102
RTVSPost2010Prop41ColorIndex
 90
       18
102
RTVSPost2010Prop41ColorRGB
 90
        0
102
RTVSPost2010PropOp41
 70
     1
102
RTVSPost2010Prop42
 90
       50
102
RTVSPost2010PropOp42
 70
     1
102
RTVSPost2010Prop43
 90
        3
102
RTVSPost2010PropOp43
 70
     1
102
RTVSPost2010Prop44ColorIndex
 90
        5
102
RTVSPost2010Prop44ColorRGB
 90
      255
102
RTVSPost2010PropOp44
 70
     1
102
RTVSPost2010Prop45
280
     0
102
RTVSPost2010PropOp45
 70
     1
102
RTVSPost2010Prop46
 90
       50
102
RTVSPost2010PropOp46
 70
     1
102
RTVSPost2010Prop47
 90
       50
102
RTVSPost2010PropOp47
 70
     1
102
RTVSPost2010Prop48
 90
       50
102
RTVSPost2010PropOp48
 70
     1
102
RTVSPost2010Prop49
280
     0
102
RTVSPost2010PropOp49
 70
     1
102
RTVSPost2010Prop50
 90
       50
102
RTVSPost2010PropOp50
 70
     1
102
RTVSPost2010Prop51ColorIndex
 90
      256
102
RTVSPost2010Prop51ColorRGB
 90
-16777216
102
RTVSPost2010PropOp51
 70
     0
102
RTVSPost2010Prop52
140
1.0
102
RTVSPost2010PropOp52
 70
     0
102
RTVSPost2010Prop53
 90
        2
102
RTVSPost2010PropOp53
 70
     1
102
RTVSPost2010Prop54
  1
strokes_ogs.tif
102
RTVSPost2010PropOp54
 70
     1
102
RTVSPost2010Prop55
280
     0
102
RTVSPost2010PropOp55
 70
     1
102
RTVSPost2010Prop56
140
1.0
102
RTVSPost2010PropOp56
 70
     1
102
RTVSPost2010Prop57
140
1.0
102
RTVSPost2010PropOp57
 70
     1
102
RTVSPropertyOp0
 70
     1
102
RTVSPropertyOp1
 70
     1
102
RTVSPropertyOp2
 70
     1
102
RTVSPropertyOp3
 70
     1
102
RTVSPropertyOp4
 70
     1
102
RTVSPropertyOp5
 70
     1
102
RTVSPropertyOp6
 70
     1
102
RTVSPropertyOp7
 70
     1
102
RTVSPropertyOp8
 70
     1
102
RTVSPropertyOp9
 70
     1
102
RTVSPropertyOp10
 70
     1
102
RTVSPropertyOp11
 70
     1
102
RTVSPropertyOp12
 70
     1
102
RTVSPropertyOp13
 70
     1
102
RTVSPropertyOp14
 70
     1
102
RTVSPropertyOp15
 70
     1
102
RTVSPropertyOp16
 70
     1
102
RTVSPropertyOp17
 70
     1
102
RTVSPropertyOp18
 70
     1
102
RTVSPropertyOp19
 70
     1
102
RTVSPropertyOp20
 70
     1
102
RTVSPropertyOp21
 70
     1
102
RTVSPropertyOp22
 70
     1
102
RTVSPropertyOp23
 70
     1
102
RTVSPropertyOp24
 70
     1
102
RTVSPropertyOp25
 70
     1
102
RTVSPropertyOp26
 70
     1
102
RTVSPropertyOp27
 70
     1
102
RTVSPropertyOp28
 70
     1
102
RTVSPropertyOp29
 70
     1
102
RTVSPropertyOp30
 70
     1
102
RTVSPropertyOp31
 70
     1
102
RTVSPropertyOp32
 70
     1
102
RTVSPropertyOp33
 70
     1
102
RTVSPropertyOp34
 70
     1
102
RTVSPropertyOp35
 70
     1
102
RTVSPropertyOp36
 70
     1
102
RTVSPropertyOp37
 70
     1
102
RTVSPropertyOp38
 70
     1
102
RTVSPropertyOp39
 70
     1
102
RTVSPropertyOp40
 70
     1
102
RTVSPropertyOp41
 70
     1
102
RTVSPropertyOp42
 70
     1
102
RTVSPropertyOp43
 70
     1
102
RTVSPropertyOp44
 70
     1
102
RTVSPropertyOp45
 70
     1
102
RTVSPropertyOp46
 70
     1
102
RTVSPropertyOp47
 70
     1
102
RTVSPropertyOp48
 70
     1
102
RTVSPropertyOp49
 70
     1
102
RTVSPropertyOp50
 70
     1
102
RTVSPropertyOp51
 70
     0
102
RTVSPropertyOp52
 70
     0
102
RTVSPropertyOp53
 70
     1
102
RTVSPropertyOp54
 70
     1
102
RTVSPropertyOp55
 70
     1
102
RTVSPropertyOp56
 70
     1
102
RTVSPropertyOp57
 70
     1
102
RTVSPropertyOp58
 70
     1
102
RTVSPropertyOp59
 70
     1
102
RTVSPropertyOp60
 70
     1
102
RTVSPropertyOp61
 70
     1
102
RTVSPropertyOp62
 70
     1
  0
XRECORD
  5
5D1
102
{ACAD_REACTORS
330
5D0
102
}
330
5D0
100
AcDbXrecord
280
     1
102
RTVSPost2010Prop28
280
     0
102
RTVSPost2010PropOp28
 70
     1
102
RTVSPost2010Prop29
280
     1
102
RTVSPost2010PropOp29
 70
     1
102
RTVSPost2010Prop30
280
     1
102
RTVSPost2010PropOp30
 70
     1
102
RTVSPost2010Prop31
280
     0
102
RTVSPost2010PropOp31
 70
     1
102
RTVSPost2010Prop32
280
     0
102
RTVSPost2010PropOp32
 70
     1
102
RTVSPost2010Prop33
280
     0
102
RTVSPost2010PropOp33
 70
     1
102
RTVSPost2010Prop34
280
     0
102
RTVSPost2010PropOp34
 70
     1
102
RTVSPost2010Prop35
280
     0
102
RTVSPost2010PropOp35
 70
     1
102
RTVSPost2010Prop36
280
     0
102
RTVSPost2010PropOp36
 70
     1
102
RTVSPost2010Prop37
 90
       50
102
RTVSPost2010PropOp37
 70
     1
102
RTVSPost2010Prop38
140
0.0
102
RTVSPost2010PropOp38
 70
     1
102
RTVSPost2010Prop39
140
1.0
102
RTVSPost2010PropOp39
 70
     1
102
RTVSPost2010Prop40
 90
        0
102
RTVSPost2010PropOp40
 70
     1
102
RTVSPost2010Prop41ColorIndex
 90
       18
102
RTVSPost2010Prop41ColorRGB
 90
        0
102
RTVSPost2010PropOp41
 70
     1
102
RTVSPost2010Prop42
 90
       50
102
RTVSPost2010PropOp42
 70
     1
102
RTVSPost2010Prop43
 90
        3
102
RTVSPost2010PropOp43
 70
     1
102
RTVSPost2010Prop44ColorIndex
 90
        5
102
RTVSPost2010Prop44ColorRGB
 90
      255
102
RTVSPost2010PropOp44
 70
     1
102
RTVSPost2010Prop45
280
     0
102
RTVSPost2010PropOp45
 70
     1
102
RTVSPost2010Prop46
 90
       50
102
RTVSPost2010PropOp46
 70
     1
102
RTVSPost2010Prop47
 90
       50
102
RTVSPost2010PropOp47
 70
     1
102
RTVSPost2010Prop48
 90
       50
102
RTVSPost2010PropOp48
 70
     1
102
RTVSPost2010Prop49
280
     0
102
RTVSPost2010PropOp49
 70
     1
102
RTVSPost2010Prop50
 90
       50
102
RTVSPost2010PropOp50
 70
     1
102
RTVSPost2010Prop51ColorIndex
 90
      256
102
RTVSPost2010Prop51ColorRGB
 90
-16777216
102
RTVSPost2010PropOp51
 70
     0
102
RTVSPost2010Prop52
140
1.0
102
RTVSPost2010PropOp52
 70
     0
102
RTVSPost2010Prop53
 90
        2
102
RTVSPost2010PropOp53
 70
     1
102
RTVSPost2010Prop54
  1
strokes_ogs.tif
102
RTVSPost2010PropOp54
 70
     1
102
RTVSPost2010Prop55
280
     0
102
RTVSPost2010PropOp55
 70
     1
102
RTVSPost2010Prop56
140
1.0
102
RTVSPost2010PropOp56
 70
     1
102
RTVSPost2010Prop57
140
1.0
102
RTVSPost2010PropOp57
 70
     1
102
RTVSPropertyOp0
 70
     1
102
RTVSPropertyOp1
 70
     1
102
RTVSPropertyOp2
 70
     1
102
RTVSPropertyOp3
 70
     1
102
RTVSPropertyOp4
 70
     1
102
RTVSPropertyOp5
 70
     1
102
RTVSPropertyOp6
 70
     1
102
RTVSPropertyOp7
 70
     1
102
RTVSPropertyOp8
 70
     1
102
RTVSPropertyOp9
 70
     1
102
RTVSPropertyOp10
 70
     1
102
RTVSPropertyOp11
 70
     1
102
RTVSPropertyOp12
 70
     1
102
RTVSPropertyOp13
 70
     1
102
RTVSPropertyOp14
 70
     1
102
RTVSPropertyOp15
 70
     1
102
RTVSPropertyOp16
 70
     1
102
RTVSPropertyOp17
 70
     1
102
RTVSPropertyOp18
 70
     1
102
RTVSPropertyOp19
 70
     1
102
RTVSPropertyOp20
 70
     1
102
RTVSPropertyOp21
 70
     1
102
RTVSPropertyOp22
 70
     1
102
RTVSPropertyOp23
 70
     1
102
RTVSPropertyOp24
 70
     1
102
RTVSPropertyOp25
 70
     1
102
RTVSPropertyOp26
 70
     1
102
RTVSPropertyOp27
 70
     1
102
RTVSPropertyOp28
 70
     1
102
RTVSPropertyOp29
 70
     1
102
RTVSPropertyOp30
 70
     1
102
RTVSPropertyOp31
 70
     1
102
RTVSPropertyOp32
 70
     1
102
RTVSPropertyOp33
 70
     1
102
RTVSPropertyOp34
 70
     1
102
RTVSPropertyOp35
 70
     1
102
RTVSPropertyOp36
 70
     1
102
RTVSPropertyOp37
 70
     1
102
RTVSPropertyOp38
 70
     1
102
RTVSPropertyOp39
 70
     1
102
RTVSPropertyOp40
 70
     1
102
RTVSPropertyOp41
 70
     1
102
RTVSPropertyOp42
 70
     1
102
RTVSPropertyOp43
 70
     1
102
RTVSPropertyOp44
 70
     1
102
RTVSPropertyOp45
 70
     1
102
RTVSPropertyOp46
 70
     1
102
RTVSPropertyOp47
 70
     1
102
RTVSPropertyOp48
 70
     1
102
RTVSPropertyOp49
 70
     1
102
RTVSPropertyOp50
 70
     1
102
RTVSPropertyOp51
 70
     0
102
RTVSPropertyOp52
 70
     0
102
RTVSPropertyOp53
 70
     1
102
RTVSPropertyOp54
 70
     1
102
RTVSPropertyOp55
 70
     1
102
RTVSPropertyOp56
 70
     1
102
RTVSPropertyOp57
 70
     1
102
RTVSPropertyOp58
 70
     1
102
RTVSPropertyOp59
 70
     1
102
RTVSPropertyOp60
 70
     1
102
RTVSPropertyOp61
 70
     1
102
RTVSPropertyOp62
 70
     1
  0
XRECORD
  5
5D9
102
{ACAD_REACTORS
330
5D8
102
}
330
5D8
100
AcDbXrecord
280
     1
102
RTVSPost2010Prop28
280
     0
102
RTVSPost2010PropOp28
 70
     1
102
RTVSPost2010Prop29
280
     1
102
RTVSPost2010PropOp29
 70
     1
102
RTVSPost2010Prop30
280
     1
102
RTVSPost2010PropOp30
 70
     1
102
RTVSPost2010Prop31
280
     0
102
RTVSPost2010PropOp31
 70
     1
102
RTVSPost2010Prop32
280
     0
102
RTVSPost2010PropOp32
 70
     1
102
RTVSPost2010Prop33
280
     0
102
RTVSPost2010PropOp33
 70
     1
102
RTVSPost2010Prop34
280
     0
102
RTVSPost2010PropOp34
 70
     1
102
RTVSPost2010Prop35
280
     0
102
RTVSPost2010PropOp35
 70
     1
102
RTVSPost2010Prop36
280
     0
102
RTVSPost2010PropOp36
 70
     1
102
RTVSPost2010Prop37
 90
       50
102
RTVSPost2010PropOp37
 70
     1
102
RTVSPost2010Prop38
140
0.0
102
RTVSPost2010PropOp38
 70
     1
102
RTVSPost2010Prop39
140
1.0
102
RTVSPost2010PropOp39
 70
     1
102
RTVSPost2010Prop40
 90
        0
102
RTVSPost2010PropOp40
 70
     1
102
RTVSPost2010Prop41ColorIndex
 90
       18
102
RTVSPost2010Prop41ColorRGB
 90
        0
102
RTVSPost2010PropOp41
 70
     1
102
RTVSPost2010Prop42
 90
       50
102
RTVSPost2010PropOp42
 70
     1
102
RTVSPost2010Prop43
 90
        3
102
RTVSPost2010PropOp43
 70
     1
102
RTVSPost2010Prop44ColorIndex
 90
        5
102
RTVSPost2010Prop44ColorRGB
 90
      255
102
RTVSPost2010PropOp44
 70
     1
102
RTVSPost2010Prop45
280
     0
102
RTVSPost2010PropOp45
 70
     1
102
RTVSPost2010Prop46
 90
       50
102
RTVSPost2010PropOp46
 70
     1
102
RTVSPost2010Prop47
 90
       50
102
RTVSPost2010PropOp47
 70
     1
102
RTVSPost2010Prop48
 90
       50
102
RTVSPost2010PropOp48
 70
     1
102
RTVSPost2010Prop49
280
     0
102
RTVSPost2010PropOp49
 70
     1
102
RTVSPost2010Prop50
 90
       50
102
RTVSPost2010PropOp50
 70
     1
102
RTVSPost2010Prop51ColorIndex
 90
      256
102
RTVSPost2010Prop51ColorRGB
 90
-16777216
102
RTVSPost2010PropOp51
 70
     0
102
RTVSPost2010Prop52
140
1.0
102
RTVSPost2010PropOp52
 70
     0
102
RTVSPost2010Prop53
 90
        2
102
RTVSPost2010PropOp53
 70
     1
102
RTVSPost2010Prop54
  1
strokes_ogs.tif
102
RTVSPost2010PropOp54
 70
     1
102
RTVSPost2010Prop55
280
     0
102
RTVSPost2010PropOp55
 70
     1
102
RTVSPost2010Prop56
140
1.0
102
RTVSPost2010PropOp56
 70
     1
102
RTVSPost2010Prop57
140
1.0
102
RTVSPost2010PropOp57
 70
     1
102
RTVSPropertyOp0
 70
     1
102
RTVSPropertyOp1
 70
     1
102
RTVSPropertyOp2
 70
     1
102
RTVSPropertyOp3
 70
     1
102
RTVSPropertyOp4
 70
     1
102
RTVSPropertyOp5
 70
     1
102
RTVSPropertyOp6
 70
     1
102
RTVSPropertyOp7
 70
     1
102
RTVSPropertyOp8
 70
     1
102
RTVSPropertyOp9
 70
     1
102
RTVSPropertyOp10
 70
     1
102
RTVSPropertyOp11
 70
     1
102
RTVSPropertyOp12
 70
     1
102
RTVSPropertyOp13
 70
     1
102
RTVSPropertyOp14
 70
     1
102
RTVSPropertyOp15
 70
     1
102
RTVSPropertyOp16
 70
     1
102
RTVSPropertyOp17
 70
     1
102
RTVSPropertyOp18
 70
     1
102
RTVSPropertyOp19
 70
     1
102
RTVSPropertyOp20
 70
     1
102
RTVSPropertyOp21
 70
     1
102
RTVSPropertyOp22
 70
     1
102
RTVSPropertyOp23
 70
     1
102
RTVSPropertyOp24
 70
     1
102
RTVSPropertyOp25
 70
     1
102
RTVSPropertyOp26
 70
     1
102
RTVSPropertyOp27
 70
     1
102
RTVSPropertyOp28
 70
     1
102
RTVSPropertyOp29
 70
     1
102
RTVSPropertyOp30
 70
     1
102
RTVSPropertyOp31
 70
     1
102
RTVSPropertyOp32
 70
     1
102
RTVSPropertyOp33
 70
     1
102
RTVSPropertyOp34
 70
     1
102
RTVSPropertyOp35
 70
     1
102
RTVSPropertyOp36
 70
     1
102
RTVSPropertyOp37
 70
     1
102
RTVSPropertyOp38
 70
     1
102
RTVSPropertyOp39
 70
     1
102
RTVSPropertyOp40
 70
     1
102
RTVSPropertyOp41
 70
     1
102
RTVSPropertyOp42
 70
     1
102
RTVSPropertyOp43
 70
     1
102
RTVSPropertyOp44
 70
     1
102
RTVSPropertyOp45
 70
     1
102
RTVSPropertyOp46
 70
     1
102
RTVSPropertyOp47
 70
     1
102
RTVSPropertyOp48
 70
     1
102
RTVSPropertyOp49
 70
     1
102
RTVSPropertyOp50
 70
     1
102
RTVSPropertyOp51
 70
     0
102
RTVSPropertyOp52
 70
     0
102
RTVSPropertyOp53
 70
     1
102
RTVSPropertyOp54
 70
     1
102
RTVSPropertyOp55
 70
     1
102
RTVSPropertyOp56
 70
     1
102
RTVSPropertyOp57
 70
     1
102
RTVSPropertyOp58
 70
     1
102
RTVSPropertyOp59
 70
     1
102
RTVSPropertyOp60
 70
     1
102
RTVSPropertyOp61
 70
     1
102
RTVSPropertyOp62
 70
     1
  0
XRECORD
  5
5CB
102
{ACAD_REACTORS
330
5CA
102
}
330
5CA
100
AcDbXrecord
280
     1
102
RTVSPost2010Prop28
280
     0
102
RTVSPost2010PropOp28
 70
     1
102
RTVSPost2010Prop29
280
     1
102
RTVSPost2010PropOp29
 70
     1
102
RTVSPost2010Prop30
280
     1
102
RTVSPost2010PropOp30
 70
     1
102
RTVSPost2010Prop31
280
     0
102
RTVSPost2010PropOp31
 70
     1
102
RTVSPost2010Prop32
280
     0
102
RTVSPost2010PropOp32
 70
     1
102
RTVSPost2010Prop33
280
     0
102
RTVSPost2010PropOp33
 70
     1
102
RTVSPost2010Prop34
280
     0
102
RTVSPost2010PropOp34
 70
     1
102
RTVSPost2010Prop35
280
     0
102
RTVSPost2010PropOp35
 70
     1
102
RTVSPost2010Prop36
280
     0
102
RTVSPost2010PropOp36
 70
     1
102
RTVSPost2010Prop37
 90
       50
102
RTVSPost2010PropOp37
 70
     1
102
RTVSPost2010Prop38
140
0.0
102
RTVSPost2010PropOp38
 70
     1
102
RTVSPost2010Prop39
140
1.0
102
RTVSPost2010PropOp39
 70
     1
102
RTVSPost2010Prop40
 90
        0
102
RTVSPost2010PropOp40
 70
     1
102
RTVSPost2010Prop41ColorIndex
 90
       18
102
RTVSPost2010Prop41ColorRGB
 90
        0
102
RTVSPost2010PropOp41
 70
     1
102
RTVSPost2010Prop42
 90
       50
102
RTVSPost2010PropOp42
 70
     1
102
RTVSPost2010Prop43
 90
        3
102
RTVSPost2010PropOp43
 70
     1
102
RTVSPost2010Prop44ColorIndex
 90
        5
102
RTVSPost2010Prop44ColorRGB
 90
      255
102
RTVSPost2010PropOp44
 70
     1
102
RTVSPost2010Prop45
280
     0
102
RTVSPost2010PropOp45
 70
     1
102
RTVSPost2010Prop46
 90
       50
102
RTVSPost2010PropOp46
 70
     1
102
RTVSPost2010Prop47
 90
       50
102
RTVSPost2010PropOp47
 70
     1
102
RTVSPost2010Prop48
 90
       50
102
RTVSPost2010PropOp48
 70
     1
102
RTVSPost2010Prop49
280
     0
102
RTVSPost2010PropOp49
 70
     1
102
RTVSPost2010Prop50
 90
       50
102
RTVSPost2010PropOp50
 70
     1
102
RTVSPost2010Prop51ColorIndex
 90
      256
102
RTVSPost2010Prop51ColorRGB
 90
-16777216
102
RTVSPost2010PropOp51
 70
     0
102
RTVSPost2010Prop52
140
1.0
102
RTVSPost2010PropOp52
 70
     0
102
RTVSPost2010Prop53
 90
        2
102
RTVSPost2010PropOp53
 70
     1
102
RTVSPost2010Prop54
  1
strokes_ogs.tif
102
RTVSPost2010PropOp54
 70
     1
102
RTVSPost2010Prop55
280
     0
102
RTVSPost2010PropOp55
 70
     1
102
RTVSPost2010Prop56
140
1.0
102
RTVSPost2010PropOp56
 70
     1
102
RTVSPost2010Prop57
140
1.0
102
RTVSPost2010PropOp57
 70
     1
102
RTVSPropertyOp0
 70
     1
102
RTVSPropertyOp1
 70
     1
102
RTVSPropertyOp2
 70
     1
102
RTVSPropertyOp3
 70
     1
102
RTVSPropertyOp4
 70
     1
102
RTVSPropertyOp5
 70
     1
102
RTVSPropertyOp6
 70
     1
102
RTVSPropertyOp7
 70
     1
102
RTVSPropertyOp8
 70
     1
102
RTVSPropertyOp9
 70
     1
102
RTVSPropertyOp10
 70
     1
102
RTVSPropertyOp11
 70
     1
102
RTVSPropertyOp12
 70
     1
102
RTVSPropertyOp13
 70
     1
102
RTVSPropertyOp14
 70
     1
102
RTVSPropertyOp15
 70
     1
102
RTVSPropertyOp16
 70
     1
102
RTVSPropertyOp17
 70
     1
102
RTVSPropertyOp18
 70
     1
102
RTVSPropertyOp19
 70
     1
102
RTVSPropertyOp20
 70
     1
102
RTVSPropertyOp21
 70
     1
102
RTVSPropertyOp22
 70
     1
102
RTVSPropertyOp23
 70
     1
102
RTVSPropertyOp24
 70
     1
102
RTVSPropertyOp25
 70
     1
102
RTVSPropertyOp26
 70
     1
102
RTVSPropertyOp27
 70
     1
102
RTVSPropertyOp28
 70
     1
102
RTVSPropertyOp29
 70
     1
102
RTVSPropertyOp30
 70
     1
102
RTVSPropertyOp31
 70
     1
102
RTVSPropertyOp32
 70
     1
102
RTVSPropertyOp33
 70
     1
102
RTVSPropertyOp34
 70
     1
102
RTVSPropertyOp35
 70
     1
102
RTVSPropertyOp36
 70
     1
102
RTVSPropertyOp37
 70
     1
102
RTVSPropertyOp38
 70
     1
102
RTVSPropertyOp39
 70
     1
102
RTVSPropertyOp40
 70
     1
102
RTVSPropertyOp41
 70
     1
102
RTVSPropertyOp42
 70
     1
102
RTVSPropertyOp43
 70
     1
102
RTVSPropertyOp44
 70
     1
102
RTVSPropertyOp45
 70
     1
102
RTVSPropertyOp46
 70
     1
102
RTVSPropertyOp47
 70
     1
102
RTVSPropertyOp48
 70
     1
102
RTVSPropertyOp49
 70
     1
102
RTVSPropertyOp50
 70
     1
102
RTVSPropertyOp51
 70
     0
102
RTVSPropertyOp52
 70
     0
102
RTVSPropertyOp53
 70
     1
102
RTVSPropertyOp54
 70
     1
102
RTVSPropertyOp55
 70
     1
102
RTVSPropertyOp56
 70
     1
102
RTVSPropertyOp57
 70
     1
102
RTVSPropertyOp58
 70
     1
102
RTVSPropertyOp59
 70
     1
102
RTVSPropertyOp60
 70
     1
102
RTVSPropertyOp61
 70
     1
102
RTVSPropertyOp62
 70
     1
  0
XRECORD
  5
5CF
102
{ACAD_REACTORS
330
5CE
102
}
330
5CE
100
AcDbXrecord
280
     1
102
RTVSPost2010Prop28
280
     0
102
RTVSPost2010PropOp28
 70
     1
102
RTVSPost2010Prop29
280
     1
102
RTVSPost2010PropOp29
 70
     1
102
RTVSPost2010Prop30
280
     1
102
RTVSPost2010PropOp30
 70
     1
102
RTVSPost2010Prop31
280
     0
102
RTVSPost2010PropOp31
 70
     1
102
RTVSPost2010Prop32
280
     0
102
RTVSPost2010PropOp32
 70
     1
102
RTVSPost2010Prop33
280
     0
102
RTVSPost2010PropOp33
 70
     1
102
RTVSPost2010Prop34
280
     0
102
RTVSPost2010PropOp34
 70
     1
102
RTVSPost2010Prop35
280
     0
102
RTVSPost2010PropOp35
 70
     1
102
RTVSPost2010Prop36
280
     0
102
RTVSPost2010PropOp36
 70
     1
102
RTVSPost2010Prop37
 90
       50
102
RTVSPost2010PropOp37
 70
     1
102
RTVSPost2010Prop38
140
0.0
102
RTVSPost2010PropOp38
 70
     1
102
RTVSPost2010Prop39
140
1.0
102
RTVSPost2010PropOp39
 70
     1
102
RTVSPost2010Prop40
 90
        0
102
RTVSPost2010PropOp40
 70
     1
102
RTVSPost2010Prop41ColorIndex
 90
       18
102
RTVSPost2010Prop41ColorRGB
 90
        0
102
RTVSPost2010PropOp41
 70
     1
102
RTVSPost2010Prop42
 90
       50
102
RTVSPost2010PropOp42
 70
     1
102
RTVSPost2010Prop43
 90
        3
102
RTVSPost2010PropOp43
 70
     1
102
RTVSPost2010Prop44ColorIndex
 90
        5
102
RTVSPost2010Prop44ColorRGB
 90
      255
102
RTVSPost2010PropOp44
 70
     1
102
RTVSPost2010Prop45
280
     0
102
RTVSPost2010PropOp45
 70
     1
102
RTVSPost2010Prop46
 90
       50
102
RTVSPost2010PropOp46
 70
     1
102
RTVSPost2010Prop47
 90
       50
102
RTVSPost2010PropOp47
 70
     1
102
RTVSPost2010Prop48
 90
       50
102
RTVSPost2010PropOp48
 70
     1
102
RTVSPost2010Prop49
280
     0
102
RTVSPost2010PropOp49
 70
     1
102
RTVSPost2010Prop50
 90
       50
102
RTVSPost2010PropOp50
 70
     1
102
RTVSPost2010Prop51ColorIndex
 90
      256
102
RTVSPost2010Prop51ColorRGB
 90
-16777216
102
RTVSPost2010PropOp51
 70
     0
102
RTVSPost2010Prop52
140
1.0
102
RTVSPost2010PropOp52
 70
     0
102
RTVSPost2010Prop53
 90
        2
102
RTVSPost2010PropOp53
 70
     1
102
RTVSPost2010Prop54
  1
strokes_ogs.tif
102
RTVSPost2010PropOp54
 70
     1
102
RTVSPost2010Prop55
280
     0
102
RTVSPost2010PropOp55
 70
     1
102
RTVSPost2010Prop56
140
1.0
102
RTVSPost2010PropOp56
 70
     1
102
RTVSPost2010Prop57
140
1.0
102
RTVSPost2010PropOp57
 70
     1
102
RTVSPropertyOp0
 70
     1
102
RTVSPropertyOp1
 70
     1
102
RTVSPropertyOp2
 70
     1
102
RTVSPropertyOp3
 70
     1
102
RTVSPropertyOp4
 70
     1
102
RTVSPropertyOp5
 70
     1
102
RTVSPropertyOp6
 70
     1
102
RTVSPropertyOp7
 70
     1
102
RTVSPropertyOp8
 70
     1
102
RTVSPropertyOp9
 70
     1
102
RTVSPropertyOp10
 70
     1
102
RTVSPropertyOp11
 70
     1
102
RTVSPropertyOp12
 70
     1
102
RTVSPropertyOp13
 70
     1
102
RTVSPropertyOp14
 70
     1
102
RTVSPropertyOp15
 70
     1
102
RTVSPropertyOp16
 70
     1
102
RTVSPropertyOp17
 70
     1
102
RTVSPropertyOp18
 70
     1
102
RTVSPropertyOp19
 70
     1
102
RTVSPropertyOp20
 70
     1
102
RTVSPropertyOp21
 70
     1
102
RTVSPropertyOp22
 70
     1
102
RTVSPropertyOp23
 70
     1
102
RTVSPropertyOp24
 70
     1
102
RTVSPropertyOp25
 70
     1
102
RTVSPropertyOp26
 70
     1
102
RTVSPropertyOp27
 70
     1
102
RTVSPropertyOp28
 70
     1
102
RTVSPropertyOp29
 70
     1
102
RTVSPropertyOp30
 70
     1
102
RTVSPropertyOp31
 70
     1
102
RTVSPropertyOp32
 70
     1
102
RTVSPropertyOp33
 70
     1
102
RTVSPropertyOp34
 70
     1
102
RTVSPropertyOp35
 70
     1
102
RTVSPropertyOp36
 70
     1
102
RTVSPropertyOp37
 70
     1
102
RTVSPropertyOp38
 70
     1
102
RTVSPropertyOp39
 70
     1
102
RTVSPropertyOp40
 70
     1
102
RTVSPropertyOp41
 70
     1
102
RTVSPropertyOp42
 70
     1
102
RTVSPropertyOp43
 70
     1
102
RTVSPropertyOp44
 70
     1
102
RTVSPropertyOp45
 70
     1
102
RTVSPropertyOp46
 70
     1
102
RTVSPropertyOp47
 70
     1
102
RTVSPropertyOp48
 70
     1
102
RTVSPropertyOp49
 70
     1
102
RTVSPropertyOp50
 70
     1
102
RTVSPropertyOp51
 70
     0
102
RTVSPropertyOp52
 70
     0
102
RTVSPropertyOp53
 70
     1
102
RTVSPropertyOp54
 70
     1
102
RTVSPropertyOp55
 70
     1
102
RTVSPropertyOp56
 70
     1
102
RTVSPropertyOp57
 70
     1
102
RTVSPropertyOp58
 70
     1
102
RTVSPropertyOp59
 70
     1
102
RTVSPropertyOp60
 70
     1
102
RTVSPropertyOp61
 70
     1
102
RTVSPropertyOp62
 70
     1
  0
XRECORD
  5
5DF
102
{ACAD_REACTORS
330
5DE
102
}
330
5DE
100
AcDbXrecord
280
     1
102
RTVSPost2010Prop28
280
     0
102
RTVSPost2010PropOp28
 70
     1
102
RTVSPost2010Prop29
280
     1
102
RTVSPost2010PropOp29
 70
     1
102
RTVSPost2010Prop30
280
     1
102
RTVSPost2010PropOp30
 70
     1
102
RTVSPost2010Prop31
280
     0
102
RTVSPost2010PropOp31
 70
     1
102
RTVSPost2010Prop32
280
     0
102
RTVSPost2010PropOp32
 70
     1
102
RTVSPost2010Prop33
280
     0
102
RTVSPost2010PropOp33
 70
     1
102
RTVSPost2010Prop34
280
     0
102
RTVSPost2010PropOp34
 70
     1
102
RTVSPost2010Prop35
280
     0
102
RTVSPost2010PropOp35
 70
     1
102
RTVSPost2010Prop36
280
     0
102
RTVSPost2010PropOp36
 70
     1
102
RTVSPost2010Prop37
 90
       50
102
RTVSPost2010PropOp37
 70
     1
102
RTVSPost2010Prop38
140
0.0
102
RTVSPost2010PropOp38
 70
     1
102
RTVSPost2010Prop39
140
1.0
102
RTVSPost2010PropOp39
 70
     1
102
RTVSPost2010Prop40
 90
        0
102
RTVSPost2010PropOp40
 70
     1
102
RTVSPost2010Prop41ColorIndex
 90
       18
102
RTVSPost2010Prop41ColorRGB
 90
        0
102
RTVSPost2010PropOp41
 70
     1
102
RTVSPost2010Prop42
 90
       50
102
RTVSPost2010PropOp42
 70
     1
102
RTVSPost2010Prop43
 90
        3
102
RTVSPost2010PropOp43
 70
     1
102
RTVSPost2010Prop44ColorIndex
 90
        5
102
RTVSPost2010Prop44ColorRGB
 90
      255
102
RTVSPost2010PropOp44
 70
     1
102
RTVSPost2010Prop45
280
     0
102
RTVSPost2010PropOp45
 70
     1
102
RTVSPost2010Prop46
 90
       50
102
RTVSPost2010PropOp46
 70
     1
102
RTVSPost2010Prop47
 90
       50
102
RTVSPost2010PropOp47
 70
     1
102
RTVSPost2010Prop48
 90
       50
102
RTVSPost2010PropOp48
 70
     1
102
RTVSPost2010Prop49
280
     0
102
RTVSPost2010PropOp49
 70
     1
102
RTVSPost2010Prop50
 90
       50
102
RTVSPost2010PropOp50
 70
     1
102
RTVSPost2010Prop51ColorIndex
 90
      256
102
RTVSPost2010Prop51ColorRGB
 90
-16777216
102
RTVSPost2010PropOp51
 70
     0
102
RTVSPost2010Prop52
140
1.0
102
RTVSPost2010PropOp52
 70
     0
102
RTVSPost2010Prop53
 90
        2
102
RTVSPost2010PropOp53
 70
     1
102
RTVSPost2010Prop54
  1
strokes_ogs.tif
102
RTVSPost2010PropOp54
 70
     1
102
RTVSPost2010Prop55
280
     0
102
RTVSPost2010PropOp55
 70
     1
102
RTVSPost2010Prop56
140
1.0
102
RTVSPost2010PropOp56
 70
     1
102
RTVSPost2010Prop57
140
1.0
102
RTVSPost2010PropOp57
 70
     1
102
RTVSPropertyOp0
 70
     0
102
RTVSPropertyOp1
 70
     0
102
RTVSPropertyOp2
 70
     0
102
RTVSPropertyOp3
 70
     0
102
RTVSPropertyOp4
 70
     0
102
RTVSPropertyOp5
 70
     0
102
RTVSPropertyOp6
 70
     0
102
RTVSPropertyOp7
 70
     0
102
RTVSPropertyOp8
 70
     0
102
RTVSPropertyOp9
 70
     0
102
RTVSPropertyOp10
 70
     0
102
RTVSPropertyOp11
 70
     0
102
RTVSPropertyOp12
 70
     0
102
RTVSPropertyOp13
 70
     0
102
RTVSPropertyOp14
 70
     2
102
RTVSPropertyOp15
 70
     0
102
RTVSPropertyOp16
 70
     0
102
RTVSPropertyOp17
 70
     0
102
RTVSPropertyOp18
 70
     0
102
RTVSPropertyOp19
 70
     0
102
RTVSPropertyOp20
 70
     0
102
RTVSPropertyOp21
 70
     0
102
RTVSPropertyOp22
 70
     0
102
RTVSPropertyOp23
 70
     0
102
RTVSPropertyOp24
 70
     0
102
RTVSPropertyOp25
 70
     0
102
RTVSPropertyOp26
 70
     0
102
RTVSPropertyOp27
 70
     0
102
RTVSPropertyOp28
 70
     1
102
RTVSPropertyOp29
 70
     1
102
RTVSPropertyOp30
 70
     1
102
RTVSPropertyOp31
 70
     1
102
RTVSPropertyOp32
 70
     1
102
RTVSPropertyOp33
 70
     1
102
RTVSPropertyOp34
 70
     1
102
RTVSPropertyOp35
 70
     1
102
RTVSPropertyOp36
 70
     1
102
RTVSPropertyOp37
 70
     1
102
RTVSPropertyOp38
 70
     1
102
RTVSPropertyOp39
 70
     1
102
RTVSPropertyOp40
 70
     1
102
RTVSPropertyOp41
 70
     1
102
RTVSPropertyOp42
 70
     1
102
RTVSPropertyOp43
 70
     1
102
RTVSPropertyOp44
 70
     1
102
RTVSPropertyOp45
 70
     1
102
RTVSPropertyOp46
 70
     1
102
RTVSPropertyOp47
 70
     1
102
RTVSPropertyOp48
 70
     1
102
RTVSPropertyOp49
 70
     1
102
RTVSPropertyOp50
 70
     1
102
RTVSPropertyOp51
 70
     0
102
RTVSPropertyOp52
 70
     0
102
RTVSPropertyOp53
 70
     1
102
RTVSPropertyOp54
 70
     1
102
RTVSPropertyOp55
 70
     1
102
RTVSPropertyOp56
 70
     1
102
RTVSPropertyOp57
 70
     1
102
RTVSPropertyOp58
 70
     1
102
RTVSPropertyOp59
 70
     1
102
RTVSPropertyOp60
 70
     1
102
RTVSPropertyOp61
 70
     1
102
RTVSPropertyOp62
 70
     1
  0
XRECORD
  5
5D7
102
{ACAD_REACTORS
330
5D6
102
}
330
5D6
100
AcDbXrecord
280
     1
102
RTVSPost2010Prop28
280
     0
102
RTVSPost2010PropOp28
 70
     1
102
RTVSPost2010Prop29
280
     1
102
RTVSPost2010PropOp29
 70
     1
102
RTVSPost2010Prop30
280
     1
102
RTVSPost2010PropOp30
 70
     1
102
RTVSPost2010Prop31
280
     0
102
RTVSPost2010PropOp31
 70
     1
102
RTVSPost2010Prop32
280
     0
102
RTVSPost2010PropOp32
 70
     1
102
RTVSPost2010Prop33
280
     0
102
RTVSPost2010PropOp33
 70
     1
102
RTVSPost2010Prop34
280
     0
102
RTVSPost2010PropOp34
 70
     1
102
RTVSPost2010Prop35
280
     0
102
RTVSPost2010PropOp35
 70
     1
102
RTVSPost2010Prop36
280
     0
102
RTVSPost2010PropOp36
 70
     1
102
RTVSPost2010Prop37
 90
       50
102
RTVSPost2010PropOp37
 70
     1
102
RTVSPost2010Prop38
140
0.0
102
RTVSPost2010PropOp38
 70
     1
102
RTVSPost2010Prop39
140
1.0
102
RTVSPost2010PropOp39
 70
     1
102
RTVSPost2010Prop40
 90
        0
102
RTVSPost2010PropOp40
 70
     1
102
RTVSPost2010Prop41ColorIndex
 90
       18
102
RTVSPost2010Prop41ColorRGB
 90
        0
102
RTVSPost2010PropOp41
 70
     1
102
RTVSPost2010Prop42
 90
       50
102
RTVSPost2010PropOp42
 70
     1
102
RTVSPost2010Prop43
 90
        3
102
RTVSPost2010PropOp43
 70
     1
102
RTVSPost2010Prop44ColorIndex
 90
        5
102
RTVSPost2010Prop44ColorRGB
 90
      255
102
RTVSPost2010PropOp44
 70
     1
102
RTVSPost2010Prop45
280
     0
102
RTVSPost2010PropOp45
 70
     1
102
RTVSPost2010Prop46
 90
       50
102
RTVSPost2010PropOp46
 70
     1
102
RTVSPost2010Prop47
 90
       50
102
RTVSPost2010PropOp47
 70
     1
102
RTVSPost2010Prop48
 90
       50
102
RTVSPost2010PropOp48
 70
     1
102
RTVSPost2010Prop49
280
     0
102
RTVSPost2010PropOp49
 70
     1
102
RTVSPost2010Prop50
 90
       50
102
RTVSPost2010PropOp50
 70
     1
102
RTVSPost2010Prop51ColorIndex
 90
      256
102
RTVSPost2010Prop51ColorRGB
 90
-16777216
102
RTVSPost2010PropOp51
 70
     0
102
RTVSPost2010Prop52
140
1.0
102
RTVSPost2010PropOp52
 70
     0
102
RTVSPost2010Prop53
 90
        2
102
RTVSPost2010PropOp53
 70
     1
102
RTVSPost2010Prop54
  1
strokes_ogs.tif
102
RTVSPost2010PropOp54
 70
     1
102
RTVSPost2010Prop55
280
     0
102
RTVSPost2010PropOp55
 70
     1
102
RTVSPost2010Prop56
140
1.0
102
RTVSPost2010PropOp56
 70
     1
102
RTVSPost2010Prop57
140
1.0
102
RTVSPost2010PropOp57
 70
     1
102
RTVSPropertyOp0
 70
     1
102
RTVSPropertyOp1
 70
     1
102
RTVSPropertyOp2
 70
     1
102
RTVSPropertyOp3
 70
     1
102
RTVSPropertyOp4
 70
     1
102
RTVSPropertyOp5
 70
     1
102
RTVSPropertyOp6
 70
     1
102
RTVSPropertyOp7
 70
     1
102
RTVSPropertyOp8
 70
     1
102
RTVSPropertyOp9
 70
     1
102
RTVSPropertyOp10
 70
     1
102
RTVSPropertyOp11
 70
     1
102
RTVSPropertyOp12
 70
     1
102
RTVSPropertyOp13
 70
     1
102
RTVSPropertyOp14
 70
     1
102
RTVSPropertyOp15
 70
     1
102
RTVSPropertyOp16
 70
     1
102
RTVSPropertyOp17
 70
     1
102
RTVSPropertyOp18
 70
     1
102
RTVSPropertyOp19
 70
     1
102
RTVSPropertyOp20
 70
     1
102
RTVSPropertyOp21
 70
     1
102
RTVSPropertyOp22
 70
     1
102
RTVSPropertyOp23
 70
     1
102
RTVSPropertyOp24
 70
     1
102
RTVSPropertyOp25
 70
     1
102
RTVSPropertyOp26
 70
     1
102
RTVSPropertyOp27
 70
     1
102
RTVSPropertyOp28
 70
     1
102
RTVSPropertyOp29
 70
     1
102
RTVSPropertyOp30
 70
     1
102
RTVSPropertyOp31
 70
     1
102
RTVSPropertyOp32
 70
     1
102
RTVSPropertyOp33
 70
     1
102
RTVSPropertyOp34
 70
     1
102
RTVSPropertyOp35
 70
     1
102
RTVSPropertyOp36
 70
     1
102
RTVSPropertyOp37
 70
     1
102
RTVSPropertyOp38
 70
     1
102
RTVSPropertyOp39
 70
     1
102
RTVSPropertyOp40
 70
     1
102
RTVSPropertyOp41
 70
     1
102
RTVSPropertyOp42
 70
     1
102
RTVSPropertyOp43
 70
     1
102
RTVSPropertyOp44
 70
     1
102
RTVSPropertyOp45
 70
     1
102
RTVSPropertyOp46
 70
     1
102
RTVSPropertyOp47
 70
     1
102
RTVSPropertyOp48
 70
     1
102
RTVSPropertyOp49
 70
     1
102
RTVSPropertyOp50
 70
     1
102
RTVSPropertyOp51
 70
     0
102
RTVSPropertyOp52
 70
     0
102
RTVSPropertyOp53
 70
     1
102
RTVSPropertyOp54
 70
     1
102
RTVSPropertyOp55
 70
     1
102
RTVSPropertyOp56
 70
     1
102
RTVSPropertyOp57
 70
     1
102
RTVSPropertyOp58
 70
     1
102
RTVSPropertyOp59
 70
     1
102
RTVSPropertyOp60
 70
     1
102
RTVSPropertyOp61
 70
     1
102
RTVSPropertyOp62
 70
     1
  0
XRECORD
  5
5BB
102
{ACAD_REACTORS
330
5BA
102
}
330
5BA
100
AcDbXrecord
280
     1
102
RTVSPost2010Prop28
280
     0
102
RTVSPost2010PropOp28
 70
     1
102
RTVSPost2010Prop29
280
     1
102
RTVSPost2010PropOp29
 70
     1
102
RTVSPost2010Prop30
280
     1
102
RTVSPost2010PropOp30
 70
     1
102
RTVSPost2010Prop31
280
     0
102
RTVSPost2010PropOp31
 70
     1
102
RTVSPost2010Prop32
280
     0
102
RTVSPost2010PropOp32
 70
     1
102
RTVSPost2010Prop33
280
     0
102
RTVSPost2010PropOp33
 70
     1
102
RTVSPost2010Prop34
280
     0
102
RTVSPost2010PropOp34
 70
     1
102
RTVSPost2010Prop35
280
     0
102
RTVSPost2010PropOp35
 70
     1
102
RTVSPost2010Prop36
280
     0
102
RTVSPost2010PropOp36
 70
     1
102
RTVSPost2010Prop37
 90
       50
102
RTVSPost2010PropOp37
 70
     1
102
RTVSPost2010Prop38
140
0.0
102
RTVSPost2010PropOp38
 70
     1
102
RTVSPost2010Prop39
140
1.0
102
RTVSPost2010PropOp39
 70
     1
102
RTVSPost2010Prop40
 90
        0
102
RTVSPost2010PropOp40
 70
     1
102
RTVSPost2010Prop41ColorIndex
 90
       18
102
RTVSPost2010Prop41ColorRGB
 90
        0
102
RTVSPost2010PropOp41
 70
     1
102
RTVSPost2010Prop42
 90
       50
102
RTVSPost2010PropOp42
 70
     1
102
RTVSPost2010Prop43
 90
        3
102
RTVSPost2010PropOp43
 70
     1
102
RTVSPost2010Prop44ColorIndex
 90
        5
102
RTVSPost2010Prop44ColorRGB
 90
      255
102
RTVSPost2010PropOp44
 70
     1
102
RTVSPost2010Prop45
280
     0
102
RTVSPost2010PropOp45
 70
     1
102
RTVSPost2010Prop46
 90
       50
102
RTVSPost2010PropOp46
 70
     1
102
RTVSPost2010Prop47
 90
       50
102
RTVSPost2010PropOp47
 70
     1
102
RTVSPost2010Prop48
 90
       50
102
RTVSPost2010PropOp48
 70
     1
102
RTVSPost2010Prop49
280
     0
102
RTVSPost2010PropOp49
 70
     1
102
RTVSPost2010Prop50
 90
       50
102
RTVSPost2010PropOp50
 70
     1
102
RTVSPost2010Prop51ColorIndex
 90
      256
102
RTVSPost2010Prop51ColorRGB
 90
-16777216
102
RTVSPost2010PropOp51
 70
     0
102
RTVSPost2010Prop52
140
1.0
102
RTVSPost2010PropOp52
 70
     0
102
RTVSPost2010Prop53
 90
        2
102
RTVSPost2010PropOp53
 70
     1
102
RTVSPost2010Prop54
  1
strokes_ogs.tif
102
RTVSPost2010PropOp54
 70
     1
102
RTVSPost2010Prop55
280
     0
102
RTVSPost2010PropOp55
 70
     1
102
RTVSPost2010Prop56
140
1.0
102
RTVSPost2010PropOp56
 70
     1
102
RTVSPost2010Prop57
140
1.0
102
RTVSPost2010PropOp57
 70
     1
102
RTVSPropertyOp0
 70
     1
102
RTVSPropertyOp1
 70
     1
102
RTVSPropertyOp2
 70
     1
102
RTVSPropertyOp3
 70
     1
102
RTVSPropertyOp4
 70
     1
102
RTVSPropertyOp5
 70
     1
102
RTVSPropertyOp6
 70
     1
102
RTVSPropertyOp7
 70
     1
102
RTVSPropertyOp8
 70
     1
102
RTVSPropertyOp9
 70
     1
102
RTVSPropertyOp10
 70
     1
102
RTVSPropertyOp11
 70
     1
102
RTVSPropertyOp12
 70
     1
102
RTVSPropertyOp13
 70
     1
102
RTVSPropertyOp14
 70
     1
102
RTVSPropertyOp15
 70
     1
102
RTVSPropertyOp16
 70
     1
102
RTVSPropertyOp17
 70
     1
102
RTVSPropertyOp18
 70
     1
102
RTVSPropertyOp19
 70
     1
102
RTVSPropertyOp20
 70
     1
102
RTVSPropertyOp21
 70
     1
102
RTVSPropertyOp22
 70
     1
102
RTVSPropertyOp23
 70
     1
102
RTVSPropertyOp24
 70
     1
102
RTVSPropertyOp25
 70
     1
102
RTVSPropertyOp26
 70
     1
102
RTVSPropertyOp27
 70
     1
102
RTVSPropertyOp28
 70
     1
102
RTVSPropertyOp29
 70
     1
102
RTVSPropertyOp30
 70
     1
102
RTVSPropertyOp31
 70
     1
102
RTVSPropertyOp32
 70
     1
102
RTVSPropertyOp33
 70
     1
102
RTVSPropertyOp34
 70
     1
102
RTVSPropertyOp35
 70
     1
102
RTVSPropertyOp36
 70
     1
102
RTVSPropertyOp37
 70
     1
102
RTVSPropertyOp38
 70
     1
102
RTVSPropertyOp39
 70
     1
102
RTVSPropertyOp40
 70
     1
102
RTVSPropertyOp41
 70
     1
102
RTVSPropertyOp42
 70
     1
102
RTVSPropertyOp43
 70
     1
102
RTVSPropertyOp44
 70
     1
102
RTVSPropertyOp45
 70
     1
102
RTVSPropertyOp46
 70
     1
102
RTVSPropertyOp47
 70
     1
102
RTVSPropertyOp48
 70
     1
102
RTVSPropertyOp49
 70
     1
102
RTVSPropertyOp50
 70
     1
102
RTVSPropertyOp51
 70
     0
102
RTVSPropertyOp52
 70
     0
102
RTVSPropertyOp53
 70
     1
102
RTVSPropertyOp54
 70
     1
102
RTVSPropertyOp55
 70
     1
102
RTVSPropertyOp56
 70
     1
102
RTVSPropertyOp57
 70
     1
102
RTVSPropertyOp58
 70
     1
102
RTVSPropertyOp59
 70
     1
102
RTVSPropertyOp60
 70
     1
102
RTVSPropertyOp61
 70
     1
102
RTVSPropertyOp62
 70
     1
  0
XRECORD
  5
5BD
102
{ACAD_REACTORS
330
5BC
102
}
330
5BC
100
AcDbXrecord
280
     1
102
RTVSPost2010Prop28
280
     0
102
RTVSPost2010PropOp28
 70
     1
102
RTVSPost2010Prop29
280
     1
102
RTVSPost2010PropOp29
 70
     1
102
RTVSPost2010Prop30
280
     1
102
RTVSPost2010PropOp30
 70
     1
102
RTVSPost2010Prop31
280
     0
102
RTVSPost2010PropOp31
 70
     1
102
RTVSPost2010Prop32
280
     0
102
RTVSPost2010PropOp32
 70
     1
102
RTVSPost2010Prop33
280
     0
102
RTVSPost2010PropOp33
 70
     1
102
RTVSPost2010Prop34
280
     0
102
RTVSPost2010PropOp34
 70
     1
102
RTVSPost2010Prop35
280
     0
102
RTVSPost2010PropOp35
 70
     1
102
RTVSPost2010Prop36
280
     0
102
RTVSPost2010PropOp36
 70
     1
102
RTVSPost2010Prop37
 90
       50
102
RTVSPost2010PropOp37
 70
     1
102
RTVSPost2010Prop38
140
0.0
102
RTVSPost2010PropOp38
 70
     1
102
RTVSPost2010Prop39
140
1.0
102
RTVSPost2010PropOp39
 70
     1
102
RTVSPost2010Prop40
 90
        0
102
RTVSPost2010PropOp40
 70
     1
102
RTVSPost2010Prop41ColorIndex
 90
       18
102
RTVSPost2010Prop41ColorRGB
 90
        0
102
RTVSPost2010PropOp41
 70
     1
102
RTVSPost2010Prop42
 90
       50
102
RTVSPost2010PropOp42
 70
     1
102
RTVSPost2010Prop43
 90
        3
102
RTVSPost2010PropOp43
 70
     1
102
RTVSPost2010Prop44ColorIndex
 90
        5
102
RTVSPost2010Prop44ColorRGB
 90
      255
102
RTVSPost2010PropOp44
 70
     1
102
RTVSPost2010Prop45
280
     0
102
RTVSPost2010PropOp45
 70
     1
102
RTVSPost2010Prop46
 90
       50
102
RTVSPost2010PropOp46
 70
     1
102
RTVSPost2010Prop47
 90
       50
102
RTVSPost2010PropOp47
 70
     1
102
RTVSPost2010Prop48
 90
       50
102
RTVSPost2010PropOp48
 70
     1
102
RTVSPost2010Prop49
280
     0
102
RTVSPost2010PropOp49
 70
     1
102
RTVSPost2010Prop50
 90
       50
102
RTVSPost2010PropOp50
 70
     1
102
RTVSPost2010Prop51ColorIndex
 90
      256
102
RTVSPost2010Prop51ColorRGB
 90
-16777216
102
RTVSPost2010PropOp51
 70
     0
102
RTVSPost2010Prop52
140
1.0
102
RTVSPost2010PropOp52
 70
     0
102
RTVSPost2010Prop53
 90
        2
102
RTVSPost2010PropOp53
 70
     1
102
RTVSPost2010Prop54
  1
strokes_ogs.tif
102
RTVSPost2010PropOp54
 70
     1
102
RTVSPost2010Prop55
280
     0
102
RTVSPost2010PropOp55
 70
     1
102
RTVSPost2010Prop56
140
1.0
102
RTVSPost2010PropOp56
 70
     1
102
RTVSPost2010Prop57
140
1.0
102
RTVSPost2010PropOp57
 70
     1
102
RTVSPropertyOp0
 70
     1
102
RTVSPropertyOp1
 70
     1
102
RTVSPropertyOp2
 70
     1
102
RTVSPropertyOp3
 70
     1
102
RTVSPropertyOp4
 70
     1
102
RTVSPropertyOp5
 70
     1
102
RTVSPropertyOp6
 70
     1
102
RTVSPropertyOp7
 70
     1
102
RTVSPropertyOp8
 70
     1
102
RTVSPropertyOp9
 70
     1
102
RTVSPropertyOp10
 70
     1
102
RTVSPropertyOp11
 70
     1
102
RTVSPropertyOp12
 70
     1
102
RTVSPropertyOp13
 70
     1
102
RTVSPropertyOp14
 70
     1
102
RTVSPropertyOp15
 70
     1
102
RTVSPropertyOp16
 70
     1
102
RTVSPropertyOp17
 70
     1
102
RTVSPropertyOp18
 70
     1
102
RTVSPropertyOp19
 70
     1
102
RTVSPropertyOp20
 70
     1
102
RTVSPropertyOp21
 70
     1
102
RTVSPropertyOp22
 70
     1
102
RTVSPropertyOp23
 70
     1
102
RTVSPropertyOp24
 70
     1
102
RTVSPropertyOp25
 70
     1
102
RTVSPropertyOp26
 70
     1
102
RTVSPropertyOp27
 70
     1
102
RTVSPropertyOp28
 70
     1
102
RTVSPropertyOp29
 70
     1
102
RTVSPropertyOp30
 70
     1
102
RTVSPropertyOp31
 70
     1
102
RTVSPropertyOp32
 70
     1
102
RTVSPropertyOp33
 70
     1
102
RTVSPropertyOp34
 70
     1
102
RTVSPropertyOp35
 70
     1
102
RTVSPropertyOp36
 70
     1
102
RTVSPropertyOp37
 70
     1
102
RTVSPropertyOp38
 70
     1
102
RTVSPropertyOp39
 70
     1
102
RTVSPropertyOp40
 70
     1
102
RTVSPropertyOp41
 70
     1
102
RTVSPropertyOp42
 70
     1
102
RTVSPropertyOp43
 70
     1
102
RTVSPropertyOp44
 70
     1
102
RTVSPropertyOp45
 70
     1
102
RTVSPropertyOp46
 70
     1
102
RTVSPropertyOp47
 70
     1
102
RTVSPropertyOp48
 70
     1
102
RTVSPropertyOp49
 70
     1
102
RTVSPropertyOp50
 70
     1
102
RTVSPropertyOp51
 70
     0
102
RTVSPropertyOp52
 70
     0
102
RTVSPropertyOp53
 70
     1
102
RTVSPropertyOp54
 70
     1
102
RTVSPropertyOp55
 70
     1
102
RTVSPropertyOp56
 70
     1
102
RTVSPropertyOp57
 70
     1
102
RTVSPropertyOp58
 70
     1
102
RTVSPropertyOp59
 70
     1
102
RTVSPropertyOp60
 70
     1
102
RTVSPropertyOp61
 70
     1
102
RTVSPropertyOp62
 70
     1
  0
XRECORD
  5
5BF
102
{ACAD_REACTORS
330
5BE
102
}
330
5BE
100
AcDbXrecord
280
     1
102
RTVSPost2010Prop28
280
     0
102
RTVSPost2010PropOp28
 70
     1
102
RTVSPost2010Prop29
280
     1
102
RTVSPost2010PropOp29
 70
     1
102
RTVSPost2010Prop30
280
     1
102
RTVSPost2010PropOp30
 70
     1
102
RTVSPost2010Prop31
280
     0
102
RTVSPost2010PropOp31
 70
     1
102
RTVSPost2010Prop32
280
     0
102
RTVSPost2010PropOp32
 70
     1
102
RTVSPost2010Prop33
280
     0
102
RTVSPost2010PropOp33
 70
     1
102
RTVSPost2010Prop34
280
     0
102
RTVSPost2010PropOp34
 70
     1
102
RTVSPost2010Prop35
280
     0
102
RTVSPost2010PropOp35
 70
     1
102
RTVSPost2010Prop36
280
     0
102
RTVSPost2010PropOp36
 70
     1
102
RTVSPost2010Prop37
 90
       50
102
RTVSPost2010PropOp37
 70
     1
102
RTVSPost2010Prop38
140
0.0
102
RTVSPost2010PropOp38
 70
     1
102
RTVSPost2010Prop39
140
1.0
102
RTVSPost2010PropOp39
 70
     1
102
RTVSPost2010Prop40
 90
        0
102
RTVSPost2010PropOp40
 70
     1
102
RTVSPost2010Prop41ColorIndex
 90
       18
102
RTVSPost2010Prop41ColorRGB
 90
        0
102
RTVSPost2010PropOp41
 70
     1
102
RTVSPost2010Prop42
 90
       50
102
RTVSPost2010PropOp42
 70
     1
102
RTVSPost2010Prop43
 90
        3
102
RTVSPost2010PropOp43
 70
     1
102
RTVSPost2010Prop44ColorIndex
 90
        5
102
RTVSPost2010Prop44ColorRGB
 90
      255
102
RTVSPost2010PropOp44
 70
     1
102
RTVSPost2010Prop45
280
     0
102
RTVSPost2010PropOp45
 70
     1
102
RTVSPost2010Prop46
 90
       50
102
RTVSPost2010PropOp46
 70
     1
102
RTVSPost2010Prop47
 90
       50
102
RTVSPost2010PropOp47
 70
     1
102
RTVSPost2010Prop48
 90
       50
102
RTVSPost2010PropOp48
 70
     1
102
RTVSPost2010Prop49
280
     0
102
RTVSPost2010PropOp49
 70
     1
102
RTVSPost2010Prop50
 90
       50
102
RTVSPost2010PropOp50
 70
     1
102
RTVSPost2010Prop51ColorIndex
 90
      256
102
RTVSPost2010Prop51ColorRGB
 90
-16777216
102
RTVSPost2010PropOp51
 70
     0
102
RTVSPost2010Prop52
140
1.0
102
RTVSPost2010PropOp52
 70
     0
102
RTVSPost2010Prop53
 90
        2
102
RTVSPost2010PropOp53
 70
     1
102
RTVSPost2010Prop54
  1
strokes_ogs.tif
102
RTVSPost2010PropOp54
 70
     1
102
RTVSPost2010Prop55
280
     0
102
RTVSPost2010PropOp55
 70
     1
102
RTVSPost2010Prop56
140
1.0
102
RTVSPost2010PropOp56
 70
     1
102
RTVSPost2010Prop57
140
1.0
102
RTVSPost2010PropOp57
 70
     1
102
RTVSPropertyOp0
 70
     1
102
RTVSPropertyOp1
 70
     1
102
RTVSPropertyOp2
 70
     1
102
RTVSPropertyOp3
 70
     1
102
RTVSPropertyOp4
 70
     1
102
RTVSPropertyOp5
 70
     1
102
RTVSPropertyOp6
 70
     1
102
RTVSPropertyOp7
 70
     1
102
RTVSPropertyOp8
 70
     1
102
RTVSPropertyOp9
 70
     1
102
RTVSPropertyOp10
 70
     1
102
RTVSPropertyOp11
 70
     1
102
RTVSPropertyOp12
 70
     1
102
RTVSPropertyOp13
 70
     1
102
RTVSPropertyOp14
 70
     1
102
RTVSPropertyOp15
 70
     1
102
RTVSPropertyOp16
 70
     1
102
RTVSPropertyOp17
 70
     1
102
RTVSPropertyOp18
 70
     1
102
RTVSPropertyOp19
 70
     1
102
RTVSPropertyOp20
 70
     1
102
RTVSPropertyOp21
 70
     1
102
RTVSPropertyOp22
 70
     1
102
RTVSPropertyOp23
 70
     1
102
RTVSPropertyOp24
 70
     1
102
RTVSPropertyOp25
 70
     1
102
RTVSPropertyOp26
 70
     1
102
RTVSPropertyOp27
 70
     1
102
RTVSPropertyOp28
 70
     1
102
RTVSPropertyOp29
 70
     1
102
RTVSPropertyOp30
 70
     1
102
RTVSPropertyOp31
 70
     1
102
RTVSPropertyOp32
 70
     1
102
RTVSPropertyOp33
 70
     1
102
RTVSPropertyOp34
 70
     1
102
RTVSPropertyOp35
 70
     1
102
RTVSPropertyOp36
 70
     1
102
RTVSPropertyOp37
 70
     1
102
RTVSPropertyOp38
 70
     1
102
RTVSPropertyOp39
 70
     1
102
RTVSPropertyOp40
 70
     1
102
RTVSPropertyOp41
 70
     1
102
RTVSPropertyOp42
 70
     1
102
RTVSPropertyOp43
 70
     1
102
RTVSPropertyOp44
 70
     1
102
RTVSPropertyOp45
 70
     1
102
RTVSPropertyOp46
 70
     1
102
RTVSPropertyOp47
 70
     1
102
RTVSPropertyOp48
 70
     1
102
RTVSPropertyOp49
 70
     1
102
RTVSPropertyOp50
 70
     1
102
RTVSPropertyOp51
 70
     0
102
RTVSPropertyOp52
 70
     0
102
RTVSPropertyOp53
 70
     1
102
RTVSPropertyOp54
 70
     1
102
RTVSPropertyOp55
 70
     1
102
RTVSPropertyOp56
 70
     1
102
RTVSPropertyOp57
 70
     1
102
RTVSPropertyOp58
 70
     1
102
RTVSPropertyOp59
 70
     1
102
RTVSPropertyOp60
 70
     1
102
RTVSPropertyOp61
 70
     1
102
RTVSPropertyOp62
 70
     1
  0
XRECORD
  5
5C1
102
{ACAD_REACTORS
330
5C0
102
}
330
5C0
100
AcDbXrecord
280
     1
102
RTVSPost2010Prop28
280
     0
102
RTVSPost2010PropOp28
 70
     1
102
RTVSPost2010Prop29
280
     1
102
RTVSPost2010PropOp29
 70
     1
102
RTVSPost2010Prop30
280
     1
102
RTVSPost2010PropOp30
 70
     1
102
RTVSPost2010Prop31
280
     0
102
RTVSPost2010PropOp31
 70
     1
102
RTVSPost2010Prop32
280
     0
102
RTVSPost2010PropOp32
 70
     1
102
RTVSPost2010Prop33
280
     0
102
RTVSPost2010PropOp33
 70
     1
102
RTVSPost2010Prop34
280
     0
102
RTVSPost2010PropOp34
 70
     1
102
RTVSPost2010Prop35
280
     0
102
RTVSPost2010PropOp35
 70
     1
102
RTVSPost2010Prop36
280
     0
102
RTVSPost2010PropOp36
 70
     1
102
RTVSPost2010Prop37
 90
       50
102
RTVSPost2010PropOp37
 70
     1
102
RTVSPost2010Prop38
140
0.0
102
RTVSPost2010PropOp38
 70
     1
102
RTVSPost2010Prop39
140
1.0
102
RTVSPost2010PropOp39
 70
     1
102
RTVSPost2010Prop40
 90
        0
102
RTVSPost2010PropOp40
 70
     1
102
RTVSPost2010Prop41ColorIndex
 90
       18
102
RTVSPost2010Prop41ColorRGB
 90
        0
102
RTVSPost2010PropOp41
 70
     1
102
RTVSPost2010Prop42
 90
       50
102
RTVSPost2010PropOp42
 70
     1
102
RTVSPost2010Prop43
 90
        3
102
RTVSPost2010PropOp43
 70
     1
102
RTVSPost2010Prop44ColorIndex
 90
        5
102
RTVSPost2010Prop44ColorRGB
 90
      255
102
RTVSPost2010PropOp44
 70
     1
102
RTVSPost2010Prop45
280
     0
102
RTVSPost2010PropOp45
 70
     1
102
RTVSPost2010Prop46
 90
       50
102
RTVSPost2010PropOp46
 70
     1
102
RTVSPost2010Prop47
 90
       50
102
RTVSPost2010PropOp47
 70
     1
102
RTVSPost2010Prop48
 90
       50
102
RTVSPost2010PropOp48
 70
     1
102
RTVSPost2010Prop49
280
     0
102
RTVSPost2010PropOp49
 70
     1
102
RTVSPost2010Prop50
 90
       50
102
RTVSPost2010PropOp50
 70
     1
102
RTVSPost2010Prop51ColorIndex
 90
      256
102
RTVSPost2010Prop51ColorRGB
 90
-16777216
102
RTVSPost2010PropOp51
 70
     0
102
RTVSPost2010Prop52
140
1.0
102
RTVSPost2010PropOp52
 70
     0
102
RTVSPost2010Prop53
 90
        2
102
RTVSPost2010PropOp53
 70
     1
102
RTVSPost2010Prop54
  1
strokes_ogs.tif
102
RTVSPost2010PropOp54
 70
     1
102
RTVSPost2010Prop55
280
     0
102
RTVSPost2010PropOp55
 70
     1
102
RTVSPost2010Prop56
140
1.0
102
RTVSPost2010PropOp56
 70
     1
102
RTVSPost2010Prop57
140
1.0
102
RTVSPost2010PropOp57
 70
     1
102
RTVSPropertyOp0
 70
     1
102
RTVSPropertyOp1
 70
     1
102
RTVSPropertyOp2
 70
     1
102
RTVSPropertyOp3
 70
     1
102
RTVSPropertyOp4
 70
     1
102
RTVSPropertyOp5
 70
     1
102
RTVSPropertyOp6
 70
     1
102
RTVSPropertyOp7
 70
     1
102
RTVSPropertyOp8
 70
     1
102
RTVSPropertyOp9
 70
     1
102
RTVSPropertyOp10
 70
     1
102
RTVSPropertyOp11
 70
     1
102
RTVSPropertyOp12
 70
     1
102
RTVSPropertyOp13
 70
     1
102
RTVSPropertyOp14
 70
     1
102
RTVSPropertyOp15
 70
     1
102
RTVSPropertyOp16
 70
     1
102
RTVSPropertyOp17
 70
     1
102
RTVSPropertyOp18
 70
     1
102
RTVSPropertyOp19
 70
     1
102
RTVSPropertyOp20
 70
     1
102
RTVSPropertyOp21
 70
     1
102
RTVSPropertyOp22
 70
     1
102
RTVSPropertyOp23
 70
     1
102
RTVSPropertyOp24
 70
     1
102
RTVSPropertyOp25
 70
     1
102
RTVSPropertyOp26
 70
     1
102
RTVSPropertyOp27
 70
     1
102
RTVSPropertyOp28
 70
     1
102
RTVSPropertyOp29
 70
     1
102
RTVSPropertyOp30
 70
     1
102
RTVSPropertyOp31
 70
     1
102
RTVSPropertyOp32
 70
     1
102
RTVSPropertyOp33
 70
     1
102
RTVSPropertyOp34
 70
     1
102
RTVSPropertyOp35
 70
     1
102
RTVSPropertyOp36
 70
     1
102
RTVSPropertyOp37
 70
     1
102
RTVSPropertyOp38
 70
     1
102
RTVSPropertyOp39
 70
     1
102
RTVSPropertyOp40
 70
     1
102
RTVSPropertyOp41
 70
     1
102
RTVSPropertyOp42
 70
     1
102
RTVSPropertyOp43
 70
     1
102
RTVSPropertyOp44
 70
     1
102
RTVSPropertyOp45
 70
     1
102
RTVSPropertyOp46
 70
     1
102
RTVSPropertyOp47
 70
     1
102
RTVSPropertyOp48
 70
     1
102
RTVSPropertyOp49
 70
     1
102
RTVSPropertyOp50
 70
     1
102
RTVSPropertyOp51
 70
     0
102
RTVSPropertyOp52
 70
     0
102
RTVSPropertyOp53
 70
     1
102
RTVSPropertyOp54
 70
     1
102
RTVSPropertyOp55
 70
     1
102
RTVSPropertyOp56
 70
     1
102
RTVSPropertyOp57
 70
     1
102
RTVSPropertyOp58
 70
     1
102
RTVSPropertyOp59
 70
     1
102
RTVSPropertyOp60
 70
     1
102
RTVSPropertyOp61
 70
     1
102
RTVSPropertyOp62
 70
     1
  0
XRECORD
  5
5EA
102
{ACAD_REACTORS
330
5E9
102
}
330
5E9
100
AcDbXrecord
280
     1
102
RTVSPost2010Prop28
280
     0
102
RTVSPost2010PropOp28
 70
     1
102
RTVSPost2010Prop29
280
     1
102
RTVSPost2010PropOp29
 70
     1
102
RTVSPost2010Prop30
280
     1
102
RTVSPost2010PropOp30
 70
     1
102
RTVSPost2010Prop31
280
     0
102
RTVSPost2010PropOp31
 70
     1
102
RTVSPost2010Prop32
280
     0
102
RTVSPost2010PropOp32
 70
     1
102
RTVSPost2010Prop33
280
     0
102
RTVSPost2010PropOp33
 70
     1
102
RTVSPost2010Prop34
280
     0
102
RTVSPost2010PropOp34
 70
     1
102
RTVSPost2010Prop35
280
     0
102
RTVSPost2010PropOp35
 70
     1
102
RTVSPost2010Prop36
280
     0
102
RTVSPost2010PropOp36
 70
     1
102
RTVSPost2010Prop37
 90
       50
102
RTVSPost2010PropOp37
 70
     1
102
RTVSPost2010Prop38
140
0.0
102
RTVSPost2010PropOp38
 70
     1
102
RTVSPost2010Prop39
140
1.0
102
RTVSPost2010PropOp39
 70
     1
102
RTVSPost2010Prop40
 90
        0
102
RTVSPost2010PropOp40
 70
     1
102
RTVSPost2010Prop41ColorIndex
 90
       18
102
RTVSPost2010Prop41ColorRGB
 90
        0
102
RTVSPost2010PropOp41
 70
     1
102
RTVSPost2010Prop42
 90
       50
102
RTVSPost2010PropOp42
 70
     1
102
RTVSPost2010Prop43
 90
        3
102
RTVSPost2010PropOp43
 70
     1
102
RTVSPost2010Prop44ColorIndex
 90
        5
102
RTVSPost2010Prop44ColorRGB
 90
      255
102
RTVSPost2010PropOp44
 70
     1
102
RTVSPost2010Prop45
280
     0
102
RTVSPost2010PropOp45
 70
     1
102
RTVSPost2010Prop46
 90
       50
102
RTVSPost2010PropOp46
 70
     1
102
RTVSPost2010Prop47
 90
       50
102
RTVSPost2010PropOp47
 70
     1
102
RTVSPost2010Prop48
 90
       50
102
RTVSPost2010PropOp48
 70
     1
102
RTVSPost2010Prop49
280
     0
102
RTVSPost2010PropOp49
 70
     1
102
RTVSPost2010Prop50
 90
       50
102
RTVSPost2010PropOp50
 70
     1
102
RTVSPost2010Prop51ColorIndex
 90
      256
102
RTVSPost2010Prop51ColorRGB
 90
-16777216
102
RTVSPost2010PropOp51
 70
     0
102
RTVSPost2010Prop52
140
1.0
102
RTVSPost2010PropOp52
 70
     0
102
RTVSPost2010Prop53
 90
        2
102
RTVSPost2010PropOp53
 70
     1
102
RTVSPost2010Prop54
  1
strokes_ogs.tif
102
RTVSPost2010PropOp54
 70
     1
102
RTVSPost2010Prop55
280
     0
102
RTVSPost2010PropOp55
 70
     1
102
RTVSPost2010Prop56
140
1.0
102
RTVSPost2010PropOp56
 70
     1
102
RTVSPost2010Prop57
140
1.0
102
RTVSPost2010PropOp57
 70
     1
102
RTVSPropertyOp0
 70
     1
102
RTVSPropertyOp1
 70
     1
102
RTVSPropertyOp2
 70
     1
102
RTVSPropertyOp3
 70
     1
102
RTVSPropertyOp4
 70
     1
102
RTVSPropertyOp5
 70
     1
102
RTVSPropertyOp6
 70
     1
102
RTVSPropertyOp7
 70
     1
102
RTVSPropertyOp8
 70
     1
102
RTVSPropertyOp9
 70
     1
102
RTVSPropertyOp10
 70
     1
102
RTVSPropertyOp11
 70
     1
102
RTVSPropertyOp12
 70
     1
102
RTVSPropertyOp13
 70
     1
102
RTVSPropertyOp14
 70
     1
102
RTVSPropertyOp15
 70
     1
102
RTVSPropertyOp16
 70
     1
102
RTVSPropertyOp17
 70
     1
102
RTVSPropertyOp18
 70
     1
102
RTVSPropertyOp19
 70
     1
102
RTVSPropertyOp20
 70
     1
102
RTVSPropertyOp21
 70
     1
102
RTVSPropertyOp22
 70
     1
102
RTVSPropertyOp23
 70
     1
102
RTVSPropertyOp24
 70
     1
102
RTVSPropertyOp25
 70
     1
102
RTVSPropertyOp26
 70
     1
102
RTVSPropertyOp27
 70
     1
102
RTVSPropertyOp28
 70
     1
102
RTVSPropertyOp29
 70
     1
102
RTVSPropertyOp30
 70
     1
102
RTVSPropertyOp31
 70
     1
102
RTVSPropertyOp32
 70
     1
102
RTVSPropertyOp33
 70
     1
102
RTVSPropertyOp34
 70
     1
102
RTVSPropertyOp35
 70
     1
102
RTVSPropertyOp36
 70
     1
102
RTVSPropertyOp37
 70
     1
102
RTVSPropertyOp38
 70
     1
102
RTVSPropertyOp39
 70
     1
102
RTVSPropertyOp40
 70
     1
102
RTVSPropertyOp41
 70
     1
102
RTVSPropertyOp42
 70
     1
102
RTVSPropertyOp43
 70
     1
102
RTVSPropertyOp44
 70
     1
102
RTVSPropertyOp45
 70
     1
102
RTVSPropertyOp46
 70
     1
102
RTVSPropertyOp47
 70
     1
102
RTVSPropertyOp48
 70
     1
102
RTVSPropertyOp49
 70
     1
102
RTVSPropertyOp50
 70
     1
102
RTVSPropertyOp51
 70
     0
102
RTVSPropertyOp52
 70
     0
102
RTVSPropertyOp53
 70
     1
102
RTVSPropertyOp54
 70
     1
102
RTVSPropertyOp55
 70
     1
102
RTVSPropertyOp56
 70
     1
102
RTVSPropertyOp57
 70
     1
102
RTVSPropertyOp58
 70
     1
102
RTVSPropertyOp59
 70
     1
102
RTVSPropertyOp60
 70
     1
102
RTVSPropertyOp61
 70
     1
102
RTVSPropertyOp62
 70
     1
  0
XRECORD
  5
5DB
102
{ACAD_REACTORS
330
5DA
102
}
330
5DA
100
AcDbXrecord
280
     1
102
RTVSPost2010Prop28
280
     0
102
RTVSPost2010PropOp28
 70
     1
102
RTVSPost2010Prop29
280
     1
102
RTVSPost2010PropOp29
 70
     1
102
RTVSPost2010Prop30
280
     1
102
RTVSPost2010PropOp30
 70
     1
102
RTVSPost2010Prop31
280
     0
102
RTVSPost2010PropOp31
 70
     1
102
RTVSPost2010Prop32
280
     0
102
RTVSPost2010PropOp32
 70
     1
102
RTVSPost2010Prop33
280
     0
102
RTVSPost2010PropOp33
 70
     1
102
RTVSPost2010Prop34
280
     0
102
RTVSPost2010PropOp34
 70
     1
102
RTVSPost2010Prop35
280
     0
102
RTVSPost2010PropOp35
 70
     1
102
RTVSPost2010Prop36
280
     0
102
RTVSPost2010PropOp36
 70
     1
102
RTVSPost2010Prop37
 90
       50
102
RTVSPost2010PropOp37
 70
     1
102
RTVSPost2010Prop38
140
0.0
102
RTVSPost2010PropOp38
 70
     1
102
RTVSPost2010Prop39
140
1.0
102
RTVSPost2010PropOp39
 70
     1
102
RTVSPost2010Prop40
 90
        0
102
RTVSPost2010PropOp40
 70
     1
102
RTVSPost2010Prop41ColorIndex
 90
       18
102
RTVSPost2010Prop41ColorRGB
 90
        0
102
RTVSPost2010PropOp41
 70
     1
102
RTVSPost2010Prop42
 90
       50
102
RTVSPost2010PropOp42
 70
     1
102
RTVSPost2010Prop43
 90
        3
102
RTVSPost2010PropOp43
 70
     1
102
RTVSPost2010Prop44ColorIndex
 90
        5
102
RTVSPost2010Prop44ColorRGB
 90
      255
102
RTVSPost2010PropOp44
 70
     1
102
RTVSPost2010Prop45
280
     0
102
RTVSPost2010PropOp45
 70
     1
102
RTVSPost2010Prop46
 90
       50
102
RTVSPost2010PropOp46
 70
     1
102
RTVSPost2010Prop47
 90
       50
102
RTVSPost2010PropOp47
 70
     1
102
RTVSPost2010Prop48
 90
       50
102
RTVSPost2010PropOp48
 70
     1
102
RTVSPost2010Prop49
280
     0
102
RTVSPost2010PropOp49
 70
     1
102
RTVSPost2010Prop50
 90
       50
102
RTVSPost2010PropOp50
 70
     1
102
RTVSPost2010Prop51ColorIndex
 90
      256
102
RTVSPost2010Prop51ColorRGB
 90
-16777216
102
RTVSPost2010PropOp51
 70
     0
102
RTVSPost2010Prop52
140
1.0
102
RTVSPost2010PropOp52
 70
     0
102
RTVSPost2010Prop53
 90
        2
102
RTVSPost2010PropOp53
 70
     1
102
RTVSPost2010Prop54
  1
strokes_ogs.tif
102
RTVSPost2010PropOp54
 70
     1
102
RTVSPost2010Prop55
280
     0
102
RTVSPost2010PropOp55
 70
     1
102
RTVSPost2010Prop56
140
1.0
102
RTVSPost2010PropOp56
 70
     1
102
RTVSPost2010Prop57
140
1.0
102
RTVSPost2010PropOp57
 70
     1
102
RTVSPropertyOp0
 70
     0
102
RTVSPropertyOp1
 70
     0
102
RTVSPropertyOp2
 70
     0
102
RTVSPropertyOp3
 70
     0
102
RTVSPropertyOp4
 70
     0
102
RTVSPropertyOp5
 70
     0
102
RTVSPropertyOp6
 70
     0
102
RTVSPropertyOp7
 70
     0
102
RTVSPropertyOp8
 70
     0
102
RTVSPropertyOp9
 70
     0
102
RTVSPropertyOp10
 70
     0
102
RTVSPropertyOp11
 70
     0
102
RTVSPropertyOp12
 70
     0
102
RTVSPropertyOp13
 70
     0
102
RTVSPropertyOp14
 70
     2
102
RTVSPropertyOp15
 70
     0
102
RTVSPropertyOp16
 70
     0
102
RTVSPropertyOp17
 70
     0
102
RTVSPropertyOp18
 70
     0
102
RTVSPropertyOp19
 70
     0
102
RTVSPropertyOp20
 70
     0
102
RTVSPropertyOp21
 70
     0
102
RTVSPropertyOp22
 70
     0
102
RTVSPropertyOp23
 70
     0
102
RTVSPropertyOp24
 70
     0
102
RTVSPropertyOp25
 70
     0
102
RTVSPropertyOp26
 70
     0
102
RTVSPropertyOp27
 70
     0
102
RTVSPropertyOp28
 70
     1
102
RTVSPropertyOp29
 70
     1
102
RTVSPropertyOp30
 70
     1
102
RTVSPropertyOp31
 70
     1
102
RTVSPropertyOp32
 70
     1
102
RTVSPropertyOp33
 70
     1
102
RTVSPropertyOp34
 70
     1
102
RTVSPropertyOp35
 70
     1
102
RTVSPropertyOp36
 70
     1
102
RTVSPropertyOp37
 70
     1
102
RTVSPropertyOp38
 70
     1
102
RTVSPropertyOp39
 70
     1
102
RTVSPropertyOp40
 70
     1
102
RTVSPropertyOp41
 70
     1
102
RTVSPropertyOp42
 70
     1
102
RTVSPropertyOp43
 70
     1
102
RTVSPropertyOp44
 70
     1
102
RTVSPropertyOp45
 70
     1
102
RTVSPropertyOp46
 70
     1
102
RTVSPropertyOp47
 70
     1
102
RTVSPropertyOp48
 70
     1
102
RTVSPropertyOp49
 70
     1
102
RTVSPropertyOp50
 70
     1
102
RTVSPropertyOp51
 70
     0
102
RTVSPropertyOp52
 70
     0
102
RTVSPropertyOp53
 70
     1
102
RTVSPropertyOp54
 70
     1
102
RTVSPropertyOp55
 70
     1
102
RTVSPropertyOp56
 70
     1
102
RTVSPropertyOp57
 70
     1
102
RTVSPropertyOp58
 70
     1
102
RTVSPropertyOp59
 70
     1
102
RTVSPropertyOp60
 70
     1
102
RTVSPropertyOp61
 70
     1
102
RTVSPropertyOp62
 70
     1
  0
XRECORD
  5
5D5
102
{ACAD_REACTORS
330
5D4
102
}
330
5D4
100
AcDbXrecord
280
     1
102
RTVSPost2010Prop28
280
     0
102
RTVSPost2010PropOp28
 70
     1
102
RTVSPost2010Prop29
280
     1
102
RTVSPost2010PropOp29
 70
     1
102
RTVSPost2010Prop30
280
     1
102
RTVSPost2010PropOp30
 70
     1
102
RTVSPost2010Prop31
280
     0
102
RTVSPost2010PropOp31
 70
     1
102
RTVSPost2010Prop32
280
     0
102
RTVSPost2010PropOp32
 70
     1
102
RTVSPost2010Prop33
280
     0
102
RTVSPost2010PropOp33
 70
     1
102
RTVSPost2010Prop34
280
     0
102
RTVSPost2010PropOp34
 70
     1
102
RTVSPost2010Prop35
280
     0
102
RTVSPost2010PropOp35
 70
     1
102
RTVSPost2010Prop36
280
     0
102
RTVSPost2010PropOp36
 70
     1
102
RTVSPost2010Prop37
 90
       50
102
RTVSPost2010PropOp37
 70
     1
102
RTVSPost2010Prop38
140
0.0
102
RTVSPost2010PropOp38
 70
     1
102
RTVSPost2010Prop39
140
1.0
102
RTVSPost2010PropOp39
 70
     1
102
RTVSPost2010Prop40
 90
        0
102
RTVSPost2010PropOp40
 70
     1
102
RTVSPost2010Prop41ColorIndex
 90
       18
102
RTVSPost2010Prop41ColorRGB
 90
        0
102
RTVSPost2010PropOp41
 70
     1
102
RTVSPost2010Prop42
 90
       50
102
RTVSPost2010PropOp42
 70
     1
102
RTVSPost2010Prop43
 90
        3
102
RTVSPost2010PropOp43
 70
     1
102
RTVSPost2010Prop44ColorIndex
 90
        5
102
RTVSPost2010Prop44ColorRGB
 90
      255
102
RTVSPost2010PropOp44
 70
     1
102
RTVSPost2010Prop45
280
     0
102
RTVSPost2010PropOp45
 70
     1
102
RTVSPost2010Prop46
 90
       50
102
RTVSPost2010PropOp46
 70
     1
102
RTVSPost2010Prop47
 90
       50
102
RTVSPost2010PropOp47
 70
     1
102
RTVSPost2010Prop48
 90
       50
102
RTVSPost2010PropOp48
 70
     1
102
RTVSPost2010Prop49
280
     0
102
RTVSPost2010PropOp49
 70
     1
102
RTVSPost2010Prop50
 90
       50
102
RTVSPost2010PropOp50
 70
     1
102
RTVSPost2010Prop51ColorIndex
 90
      256
102
RTVSPost2010Prop51ColorRGB
 90
-16777216
102
RTVSPost2010PropOp51
 70
     0
102
RTVSPost2010Prop52
140
1.0
102
RTVSPost2010PropOp52
 70
     0
102
RTVSPost2010Prop53
 90
        2
102
RTVSPost2010PropOp53
 70
     1
102
RTVSPost2010Prop54
  1
strokes_ogs.tif
102
RTVSPost2010PropOp54
 70
     1
102
RTVSPost2010Prop55
280
     0
102
RTVSPost2010PropOp55
 70
     1
102
RTVSPost2010Prop56
140
1.0
102
RTVSPost2010PropOp56
 70
     1
102
RTVSPost2010Prop57
140
1.0
102
RTVSPost2010PropOp57
 70
     1
102
RTVSPropertyOp0
 70
     1
102
RTVSPropertyOp1
 70
     1
102
RTVSPropertyOp2
 70
     1
102
RTVSPropertyOp3
 70
     1
102
RTVSPropertyOp4
 70
     1
102
RTVSPropertyOp5
 70
     1
102
RTVSPropertyOp6
 70
     1
102
RTVSPropertyOp7
 70
     1
102
RTVSPropertyOp8
 70
     1
102
RTVSPropertyOp9
 70
     1
102
RTVSPropertyOp10
 70
     1
102
RTVSPropertyOp11
 70
     1
102
RTVSPropertyOp12
 70
     1
102
RTVSPropertyOp13
 70
     1
102
RTVSPropertyOp14
 70
     1
102
RTVSPropertyOp15
 70
     1
102
RTVSPropertyOp16
 70
     1
102
RTVSPropertyOp17
 70
     1
102
RTVSPropertyOp18
 70
     1
102
RTVSPropertyOp19
 70
     1
102
RTVSPropertyOp20
 70
     1
102
RTVSPropertyOp21
 70
     1
102
RTVSPropertyOp22
 70
     1
102
RTVSPropertyOp23
 70
     1
102
RTVSPropertyOp24
 70
     1
102
RTVSPropertyOp25
 70
     1
102
RTVSPropertyOp26
 70
     1
102
RTVSPropertyOp27
 70
     1
102
RTVSPropertyOp28
 70
     1
102
RTVSPropertyOp29
 70
     1
102
RTVSPropertyOp30
 70
     1
102
RTVSPropertyOp31
 70
     1
102
RTVSPropertyOp32
 70
     1
102
RTVSPropertyOp33
 70
     1
102
RTVSPropertyOp34
 70
     1
102
RTVSPropertyOp35
 70
     1
102
RTVSPropertyOp36
 70
     1
102
RTVSPropertyOp37
 70
     1
102
RTVSPropertyOp38
 70
     1
102
RTVSPropertyOp39
 70
     1
102
RTVSPropertyOp40
 70
     1
102
RTVSPropertyOp41
 70
     1
102
RTVSPropertyOp42
 70
     1
102
RTVSPropertyOp43
 70
     1
102
RTVSPropertyOp44
 70
     1
102
RTVSPropertyOp45
 70
     1
102
RTVSPropertyOp46
 70
     1
102
RTVSPropertyOp47
 70
     1
102
RTVSPropertyOp48
 70
     1
102
RTVSPropertyOp49
 70
     1
102
RTVSPropertyOp50
 70
     1
102
RTVSPropertyOp51
 70
     0
102
RTVSPropertyOp52
 70
     0
102
RTVSPropertyOp53
 70
     1
102
RTVSPropertyOp54
 70
     1
102
RTVSPropertyOp55
 70
     1
102
RTVSPropertyOp56
 70
     1
102
RTVSPropertyOp57
 70
     1
102
RTVSPropertyOp58
 70
     1
102
RTVSPropertyOp59
 70
     1
102
RTVSPropertyOp60
 70
     1
102
RTVSPropertyOp61
 70
     1
102
RTVSPropertyOp62
 70
     1
  0
XRECORD
  5
5DD
102
{ACAD_REACTORS
330
5DC
102
}
330
5DC
100
AcDbXrecord
280
     1
102
RTVSPost2010Prop28
280
     0
102
RTVSPost2010PropOp28
 70
     1
102
RTVSPost2010Prop29
280
     1
102
RTVSPost2010PropOp29
 70
     1
102
RTVSPost2010Prop30
280
     1
102
RTVSPost2010PropOp30
 70
     1
102
RTVSPost2010Prop31
280
     0
102
RTVSPost2010PropOp31
 70
     1
102
RTVSPost2010Prop32
280
     0
102
RTVSPost2010PropOp32
 70
     1
102
RTVSPost2010Prop33
280
     0
102
RTVSPost2010PropOp33
 70
     1
102
RTVSPost2010Prop34
280
     0
102
RTVSPost2010PropOp34
 70
     1
102
RTVSPost2010Prop35
280
     0
102
RTVSPost2010PropOp35
 70
     1
102
RTVSPost2010Prop36
280
     0
102
RTVSPost2010PropOp36
 70
     1
102
RTVSPost2010Prop37
 90
       50
102
RTVSPost2010PropOp37
 70
     1
102
RTVSPost2010Prop38
140
0.0
102
RTVSPost2010PropOp38
 70
     1
102
RTVSPost2010Prop39
140
1.0
102
RTVSPost2010PropOp39
 70
     1
102
RTVSPost2010Prop40
 90
        0
102
RTVSPost2010PropOp40
 70
     1
102
RTVSPost2010Prop41ColorIndex
 90
       18
102
RTVSPost2010Prop41ColorRGB
 90
        0
102
RTVSPost2010PropOp41
 70
     1
102
RTVSPost2010Prop42
 90
       50
102
RTVSPost2010PropOp42
 70
     1
102
RTVSPost2010Prop43
 90
        3
102
RTVSPost2010PropOp43
 70
     1
102
RTVSPost2010Prop44ColorIndex
 90
        5
102
RTVSPost2010Prop44ColorRGB
 90
      255
102
RTVSPost2010PropOp44
 70
     1
102
RTVSPost2010Prop45
280
     0
102
RTVSPost2010PropOp45
 70
     1
102
RTVSPost2010Prop46
 90
       50
102
RTVSPost2010PropOp46
 70
     1
102
RTVSPost2010Prop47
 90
       50
102
RTVSPost2010PropOp47
 70
     1
102
RTVSPost2010Prop48
 90
       50
102
RTVSPost2010PropOp48
 70
     1
102
RTVSPost2010Prop49
280
     0
102
RTVSPost2010PropOp49
 70
     1
102
RTVSPost2010Prop50
 90
       50
102
RTVSPost2010PropOp50
 70
     1
102
RTVSPost2010Prop51ColorIndex
 90
      256
102
RTVSPost2010Prop51ColorRGB
 90
-16777216
102
RTVSPost2010PropOp51
 70
     0
102
RTVSPost2010Prop52
140
1.0
102
RTVSPost2010PropOp52
 70
     0
102
RTVSPost2010Prop53
 90
        2
102
RTVSPost2010PropOp53
 70
     1
102
RTVSPost2010Prop54
  1
strokes_ogs.tif
102
RTVSPost2010PropOp54
 70
     1
102
RTVSPost2010Prop55
280
     0
102
RTVSPost2010PropOp55
 70
     1
102
RTVSPost2010Prop56
140
1.0
102
RTVSPost2010PropOp56
 70
     1
102
RTVSPost2010Prop57
140
1.0
102
RTVSPost2010PropOp57
 70
     1
102
RTVSPropertyOp0
 70
     0
102
RTVSPropertyOp1
 70
     0
102
RTVSPropertyOp2
 70
     0
102
RTVSPropertyOp3
 70
     0
102
RTVSPropertyOp4
 70
     0
102
RTVSPropertyOp5
 70
     0
102
RTVSPropertyOp6
 70
     0
102
RTVSPropertyOp7
 70
     0
102
RTVSPropertyOp8
 70
     0
102
RTVSPropertyOp9
 70
     0
102
RTVSPropertyOp10
 70
     0
102
RTVSPropertyOp11
 70
     0
102
RTVSPropertyOp12
 70
     0
102
RTVSPropertyOp13
 70
     0
102
RTVSPropertyOp14
 70
     2
102
RTVSPropertyOp15
 70
     0
102
RTVSPropertyOp16
 70
     0
102
RTVSPropertyOp17
 70
     0
102
RTVSPropertyOp18
 70
     0
102
RTVSPropertyOp19
 70
     0
102
RTVSPropertyOp20
 70
     0
102
RTVSPropertyOp21
 70
     0
102
RTVSPropertyOp22
 70
     0
102
RTVSPropertyOp23
 70
     0
102
RTVSPropertyOp24
 70
     0
102
RTVSPropertyOp25
 70
     0
102
RTVSPropertyOp26
 70
     0
102
RTVSPropertyOp27
 70
     0
102
RTVSPropertyOp28
 70
     1
102
RTVSPropertyOp29
 70
     1
102
RTVSPropertyOp30
 70
     1
102
RTVSPropertyOp31
 70
     1
102
RTVSPropertyOp32
 70
     1
102
RTVSPropertyOp33
 70
     1
102
RTVSPropertyOp34
 70
     1
102
RTVSPropertyOp35
 70
     1
102
RTVSPropertyOp36
 70
     1
102
RTVSPropertyOp37
 70
     1
102
RTVSPropertyOp38
 70
     1
102
RTVSPropertyOp39
 70
     1
102
RTVSPropertyOp40
 70
     1
102
RTVSPropertyOp41
 70
     1
102
RTVSPropertyOp42
 70
     1
102
RTVSPropertyOp43
 70
     1
102
RTVSPropertyOp44
 70
     1
102
RTVSPropertyOp45
 70
     1
102
RTVSPropertyOp46
 70
     1
102
RTVSPropertyOp47
 70
     1
102
RTVSPropertyOp48
 70
     1
102
RTVSPropertyOp49
 70
     1
102
RTVSPropertyOp50
 70
     1
102
RTVSPropertyOp51
 70
     0
102
RTVSPropertyOp52
 70
     0
102
RTVSPropertyOp53
 70
     1
102
RTVSPropertyOp54
 70
     1
102
RTVSPropertyOp55
 70
     1
102
RTVSPropertyOp56
 70
     1
102
RTVSPropertyOp57
 70
     1
102
RTVSPropertyOp58
 70
     1
102
RTVSPropertyOp59
 70
     1
102
RTVSPropertyOp60
 70
     1
102
RTVSPropertyOp61
 70
     1
102
RTVSPropertyOp62
 70
     1
  0
XRECORD
  5
5CD
102
{ACAD_REACTORS
330
5CC
102
}
330
5CC
100
AcDbXrecord
280
     1
102
RTVSPost2010Prop28
280
     0
102
RTVSPost2010PropOp28
 70
     1
102
RTVSPost2010Prop29
280
     1
102
RTVSPost2010PropOp29
 70
     1
102
RTVSPost2010Prop30
280
     1
102
RTVSPost2010PropOp30
 70
     1
102
RTVSPost2010Prop31
280
     0
102
RTVSPost2010PropOp31
 70
     1
102
RTVSPost2010Prop32
280
     0
102
RTVSPost2010PropOp32
 70
     1
102
RTVSPost2010Prop33
280
     0
102
RTVSPost2010PropOp33
 70
     1
102
RTVSPost2010Prop34
280
     0
102
RTVSPost2010PropOp34
 70
     1
102
RTVSPost2010Prop35
280
     0
102
RTVSPost2010PropOp35
 70
     1
102
RTVSPost2010Prop36
280
     0
102
RTVSPost2010PropOp36
 70
     1
102
RTVSPost2010Prop37
 90
       50
102
RTVSPost2010PropOp37
 70
     1
102
RTVSPost2010Prop38
140
0.0
102
RTVSPost2010PropOp38
 70
     1
102
RTVSPost2010Prop39
140
1.0
102
RTVSPost2010PropOp39
 70
     1
102
RTVSPost2010Prop40
 90
        0
102
RTVSPost2010PropOp40
 70
     1
102
RTVSPost2010Prop41ColorIndex
 90
       18
102
RTVSPost2010Prop41ColorRGB
 90
        0
102
RTVSPost2010PropOp41
 70
     1
102
RTVSPost2010Prop42
 90
       50
102
RTVSPost2010PropOp42
 70
     1
102
RTVSPost2010Prop43
 90
        3
102
RTVSPost2010PropOp43
 70
     1
102
RTVSPost2010Prop44ColorIndex
 90
        5
102
RTVSPost2010Prop44ColorRGB
 90
      255
102
RTVSPost2010PropOp44
 70
     1
102
RTVSPost2010Prop45
280
     0
102
RTVSPost2010PropOp45
 70
     1
102
RTVSPost2010Prop46
 90
       50
102
RTVSPost2010PropOp46
 70
     1
102
RTVSPost2010Prop47
 90
       50
102
RTVSPost2010PropOp47
 70
     1
102
RTVSPost2010Prop48
 90
       50
102
RTVSPost2010PropOp48
 70
     1
102
RTVSPost2010Prop49
280
     0
102
RTVSPost2010PropOp49
 70
     1
102
RTVSPost2010Prop50
 90
       50
102
RTVSPost2010PropOp50
 70
     1
102
RTVSPost2010Prop51ColorIndex
 90
      256
102
RTVSPost2010Prop51ColorRGB
 90
-16777216
102
RTVSPost2010PropOp51
 70
     0
102
RTVSPost2010Prop52
140
1.0
102
RTVSPost2010PropOp52
 70
     0
102
RTVSPost2010Prop53
 90
        2
102
RTVSPost2010PropOp53
 70
     1
102
RTVSPost2010Prop54
  1
strokes_ogs.tif
102
RTVSPost2010PropOp54
 70
     1
102
RTVSPost2010Prop55
280
     0
102
RTVSPost2010PropOp55
 70
     1
102
RTVSPost2010Prop56
140
1.0
102
RTVSPost2010PropOp56
 70
     1
102
RTVSPost2010Prop57
140
1.0
102
RTVSPost2010PropOp57
 70
     1
102
RTVSPropertyOp0
 70
     1
102
RTVSPropertyOp1
 70
     1
102
RTVSPropertyOp2
 70
     1
102
RTVSPropertyOp3
 70
     1
102
RTVSPropertyOp4
 70
     1
102
RTVSPropertyOp5
 70
     1
102
RTVSPropertyOp6
 70
     1
102
RTVSPropertyOp7
 70
     1
102
RTVSPropertyOp8
 70
     1
102
RTVSPropertyOp9
 70
     1
102
RTVSPropertyOp10
 70
     1
102
RTVSPropertyOp11
 70
     1
102
RTVSPropertyOp12
 70
     1
102
RTVSPropertyOp13
 70
     1
102
RTVSPropertyOp14
 70
     1
102
RTVSPropertyOp15
 70
     1
102
RTVSPropertyOp16
 70
     1
102
RTVSPropertyOp17
 70
     1
102
RTVSPropertyOp18
 70
     1
102
RTVSPropertyOp19
 70
     1
102
RTVSPropertyOp20
 70
     1
102
RTVSPropertyOp21
 70
     1
102
RTVSPropertyOp22
 70
     1
102
RTVSPropertyOp23
 70
     1
102
RTVSPropertyOp24
 70
     1
102
RTVSPropertyOp25
 70
     1
102
RTVSPropertyOp26
 70
     1
102
RTVSPropertyOp27
 70
     1
102
RTVSPropertyOp28
 70
     1
102
RTVSPropertyOp29
 70
     1
102
RTVSPropertyOp30
 70
     1
102
RTVSPropertyOp31
 70
     1
102
RTVSPropertyOp32
 70
     1
102
RTVSPropertyOp33
 70
     1
102
RTVSPropertyOp34
 70
     1
102
RTVSPropertyOp35
 70
     1
102
RTVSPropertyOp36
 70
     1
102
RTVSPropertyOp37
 70
     1
102
RTVSPropertyOp38
 70
     1
102
RTVSPropertyOp39
 70
     1
102
RTVSPropertyOp40
 70
     1
102
RTVSPropertyOp41
 70
     1
102
RTVSPropertyOp42
 70
     1
102
RTVSPropertyOp43
 70
     1
102
RTVSPropertyOp44
 70
     1
102
RTVSPropertyOp45
 70
     1
102
RTVSPropertyOp46
 70
     1
102
RTVSPropertyOp47
 70
     1
102
RTVSPropertyOp48
 70
     1
102
RTVSPropertyOp49
 70
     1
102
RTVSPropertyOp50
 70
     1
102
RTVSPropertyOp51
 70
     0
102
RTVSPropertyOp52
 70
     0
102
RTVSPropertyOp53
 70
     1
102
RTVSPropertyOp54
 70
     1
102
RTVSPropertyOp55
 70
     1
102
RTVSPropertyOp56
 70
     1
102
RTVSPropertyOp57
 70
     1
102
RTVSPropertyOp58
 70
     1
102
RTVSPropertyOp59
 70
     1
102
RTVSPropertyOp60
 70
     1
102
RTVSPropertyOp61
 70
     1
102
RTVSPropertyOp62
 70
     1
  0
XRECORD
  5
5F4
102
{ACAD_REACTORS
330
5F3
102
}
330
5F3
100
AcDbXrecord
280
     1
102
RTVSPost2010Prop28
280
     0
102
RTVSPost2010PropOp28
 70
     1
102
RTVSPost2010Prop29
280
     1
102
RTVSPost2010PropOp29
 70
     1
102
RTVSPost2010Prop30
280
     1
102
RTVSPost2010PropOp30
 70
     1
102
RTVSPost2010Prop31
280
     0
102
RTVSPost2010PropOp31
 70
     1
102
RTVSPost2010Prop32
280
     0
102
RTVSPost2010PropOp32
 70
     1
102
RTVSPost2010Prop33
280
     0
102
RTVSPost2010PropOp33
 70
     1
102
RTVSPost2010Prop34
280
     0
102
RTVSPost2010PropOp34
 70
     1
102
RTVSPost2010Prop35
280
     0
102
RTVSPost2010PropOp35
 70
     1
102
RTVSPost2010Prop36
280
     0
102
RTVSPost2010PropOp36
 70
     1
102
RTVSPost2010Prop37
 90
       50
102
RTVSPost2010PropOp37
 70
     1
102
RTVSPost2010Prop38
140
0.0
102
RTVSPost2010PropOp38
 70
     1
102
RTVSPost2010Prop39
140
1.0
102
RTVSPost2010PropOp39
 70
     1
102
RTVSPost2010Prop40
 90
        0
102
RTVSPost2010PropOp40
 70
     1
102
RTVSPost2010Prop41ColorIndex
 90
       18
102
RTVSPost2010Prop41ColorRGB
 90
        0
102
RTVSPost2010PropOp41
 70
     1
102
RTVSPost2010Prop42
 90
       50
102
RTVSPost2010PropOp42
 70
     1
102
RTVSPost2010Prop43
 90
        3
102
RTVSPost2010PropOp43
 70
     1
102
RTVSPost2010Prop44ColorIndex
 90
        5
102
RTVSPost2010Prop44ColorRGB
 90
      255
102
RTVSPost2010PropOp44
 70
     1
102
RTVSPost2010Prop45
280
     0
102
RTVSPost2010PropOp45
 70
     1
102
RTVSPost2010Prop46
 90
       50
102
RTVSPost2010PropOp46
 70
     1
102
RTVSPost2010Prop47
 90
       50
102
RTVSPost2010PropOp47
 70
     1
102
RTVSPost2010Prop48
 90
       50
102
RTVSPost2010PropOp48
 70
     1
102
RTVSPost2010Prop49
280
     0
102
RTVSPost2010PropOp49
 70
     1
102
RTVSPost2010Prop50
 90
       50
102
RTVSPost2010PropOp50
 70
     1
102
RTVSPost2010Prop51ColorIndex
 90
      256
102
RTVSPost2010Prop51ColorRGB
 90
-16777216
102
RTVSPost2010PropOp51
 70
     0
102
RTVSPost2010Prop52
140
1.0
102
RTVSPost2010PropOp52
 70
     0
102
RTVSPost2010Prop53
 90
        2
102
RTVSPost2010PropOp53
 70
     1
102
RTVSPost2010Prop54
  1
strokes_ogs.tif
102
RTVSPost2010PropOp54
 70
     1
102
RTVSPost2010Prop55
280
     0
102
RTVSPost2010PropOp55
 70
     1
102
RTVSPost2010Prop56
140
1.0
102
RTVSPost2010PropOp56
 70
     1
102
RTVSPost2010Prop57
140
1.0
102
RTVSPost2010PropOp57
 70
     1
102
RTVSPropertyOp0
 70
     1
102
RTVSPropertyOp1
 70
     1
102
RTVSPropertyOp2
 70
     1
102
RTVSPropertyOp3
 70
     1
102
RTVSPropertyOp4
 70
     1
102
RTVSPropertyOp5
 70
     1
102
RTVSPropertyOp6
 70
     1
102
RTVSPropertyOp7
 70
     1
102
RTVSPropertyOp8
 70
     1
102
RTVSPropertyOp9
 70
     1
102
RTVSPropertyOp10
 70
     1
102
RTVSPropertyOp11
 70
     1
102
RTVSPropertyOp12
 70
     1
102
RTVSPropertyOp13
 70
     1
102
RTVSPropertyOp14
 70
     1
102
RTVSPropertyOp15
 70
     1
102
RTVSPropertyOp16
 70
     1
102
RTVSPropertyOp17
 70
     1
102
RTVSPropertyOp18
 70
     1
102
RTVSPropertyOp19
 70
     1
102
RTVSPropertyOp20
 70
     1
102
RTVSPropertyOp21
 70
     1
102
RTVSPropertyOp22
 70
     1
102
RTVSPropertyOp23
 70
     1
102
RTVSPropertyOp24
 70
     1
102
RTVSPropertyOp25
 70
     1
102
RTVSPropertyOp26
 70
     1
102
RTVSPropertyOp27
 70
     1
102
RTVSPropertyOp28
 70
     1
102
RTVSPropertyOp29
 70
     1
102
RTVSPropertyOp30
 70
     1
102
RTVSPropertyOp31
 70
     1
102
RTVSPropertyOp32
 70
     1
102
RTVSPropertyOp33
 70
     1
102
RTVSPropertyOp34
 70
     1
102
RTVSPropertyOp35
 70
     1
102
RTVSPropertyOp36
 70
     1
102
RTVSPropertyOp37
 70
     1
102
RTVSPropertyOp38
 70
     1
102
RTVSPropertyOp39
 70
     1
102
RTVSPropertyOp40
 70
     1
102
RTVSPropertyOp41
 70
     1
102
RTVSPropertyOp42
 70
     1
102
RTVSPropertyOp43
 70
     1
102
RTVSPropertyOp44
 70
     1
102
RTVSPropertyOp45
 70
     1
102
RTVSPropertyOp46
 70
     1
102
RTVSPropertyOp47
 70
     1
102
RTVSPropertyOp48
 70
     1
102
RTVSPropertyOp49
 70
     1
102
RTVSPropertyOp50
 70
     1
102
RTVSPropertyOp51
 70
     0
102
RTVSPropertyOp52
 70
     0
102
RTVSPropertyOp53
 70
     1
102
RTVSPropertyOp54
 70
     1
102
RTVSPropertyOp55
 70
     1
102
RTVSPropertyOp56
 70
     1
102
RTVSPropertyOp57
 70
     1
102
RTVSPropertyOp58
 70
     1
102
RTVSPropertyOp59
 70
     1
102
RTVSPropertyOp60
 70
     1
102
RTVSPropertyOp61
 70
     1
102
RTVSPropertyOp62
 70
     1
  0
XRECORD
  5
5F2
102
{ACAD_REACTORS
330
5F1
102
}
330
5F1
100
AcDbXrecord
280
     1
102
RTVSPost2010Prop28
280
     0
102
RTVSPost2010PropOp28
 70
     1
102
RTVSPost2010Prop29
280
     1
102
RTVSPost2010PropOp29
 70
     1
102
RTVSPost2010Prop30
280
     1
102
RTVSPost2010PropOp30
 70
     1
102
RTVSPost2010Prop31
280
     0
102
RTVSPost2010PropOp31
 70
     1
102
RTVSPost2010Prop32
280
     0
102
RTVSPost2010PropOp32
 70
     1
102
RTVSPost2010Prop33
280
     0
102
RTVSPost2010PropOp33
 70
     1
102
RTVSPost2010Prop34
280
     0
102
RTVSPost2010PropOp34
 70
     1
102
RTVSPost2010Prop35
280
     0
102
RTVSPost2010PropOp35
 70
     1
102
RTVSPost2010Prop36
280
     0
102
RTVSPost2010PropOp36
 70
     1
102
RTVSPost2010Prop37
 90
       50
102
RTVSPost2010PropOp37
 70
     1
102
RTVSPost2010Prop38
140
0.0
102
RTVSPost2010PropOp38
 70
     1
102
RTVSPost2010Prop39
140
1.0
102
RTVSPost2010PropOp39
 70
     1
102
RTVSPost2010Prop40
 90
        0
102
RTVSPost2010PropOp40
 70
     1
102
RTVSPost2010Prop41ColorIndex
 90
       18
102
RTVSPost2010Prop41ColorRGB
 90
        0
102
RTVSPost2010PropOp41
 70
     1
102
RTVSPost2010Prop42
 90
       50
102
RTVSPost2010PropOp42
 70
     1
102
RTVSPost2010Prop43
 90
        3
102
RTVSPost2010PropOp43
 70
     1
102
RTVSPost2010Prop44ColorIndex
 90
        5
102
RTVSPost2010Prop44ColorRGB
 90
      255
102
RTVSPost2010PropOp44
 70
     1
102
RTVSPost2010Prop45
280
     0
102
RTVSPost2010PropOp45
 70
     1
102
RTVSPost2010Prop46
 90
       50
102
RTVSPost2010PropOp46
 70
     1
102
RTVSPost2010Prop47
 90
       50
102
RTVSPost2010PropOp47
 70
     1
102
RTVSPost2010Prop48
 90
       50
102
RTVSPost2010PropOp48
 70
     1
102
RTVSPost2010Prop49
280
     0
102
RTVSPost2010PropOp49
 70
     1
102
RTVSPost2010Prop50
 90
       50
102
RTVSPost2010PropOp50
 70
     1
102
RTVSPost2010Prop51ColorIndex
 90
      256
102
RTVSPost2010Prop51ColorRGB
 90
-16777216
102
RTVSPost2010PropOp51
 70
     0
102
RTVSPost2010Prop52
140
1.0
102
RTVSPost2010PropOp52
 70
     0
102
RTVSPost2010Prop53
 90
        2
102
RTVSPost2010PropOp53
 70
     1
102
RTVSPost2010Prop54
  1
strokes_ogs.tif
102
RTVSPost2010PropOp54
 70
     1
102
RTVSPost2010Prop55
280
     0
102
RTVSPost2010PropOp55
 70
     1
102
RTVSPost2010Prop56
140
1.0
102
RTVSPost2010PropOp56
 70
     1
102
RTVSPost2010Prop57
140
1.0
102
RTVSPost2010PropOp57
 70
     1
102
RTVSPropertyOp0
 70
     1
102
RTVSPropertyOp1
 70
     1
102
RTVSPropertyOp2
 70
     1
102
RTVSPropertyOp3
 70
     1
102
RTVSPropertyOp4
 70
     1
102
RTVSPropertyOp5
 70
     1
102
RTVSPropertyOp6
 70
     1
102
RTVSPropertyOp7
 70
     1
102
RTVSPropertyOp8
 70
     1
102
RTVSPropertyOp9
 70
     1
102
RTVSPropertyOp10
 70
     1
102
RTVSPropertyOp11
 70
     1
102
RTVSPropertyOp12
 70
     1
102
RTVSPropertyOp13
 70
     1
102
RTVSPropertyOp14
 70
     1
102
RTVSPropertyOp15
 70
     1
102
RTVSPropertyOp16
 70
     1
102
RTVSPropertyOp17
 70
     1
102
RTVSPropertyOp18
 70
     1
102
RTVSPropertyOp19
 70
     1
102
RTVSPropertyOp20
 70
     1
102
RTVSPropertyOp21
 70
     1
102
RTVSPropertyOp22
 70
     1
102
RTVSPropertyOp23
 70
     1
102
RTVSPropertyOp24
 70
     1
102
RTVSPropertyOp25
 70
     1
102
RTVSPropertyOp26
 70
     1
102
RTVSPropertyOp27
 70
     1
102
RTVSPropertyOp28
 70
     1
102
RTVSPropertyOp29
 70
     1
102
RTVSPropertyOp30
 70
     1
102
RTVSPropertyOp31
 70
     1
102
RTVSPropertyOp32
 70
     1
102
RTVSPropertyOp33
 70
     1
102
RTVSPropertyOp34
 70
     1
102
RTVSPropertyOp35
 70
     1
102
RTVSPropertyOp36
 70
     1
102
RTVSPropertyOp37
 70
     1
102
RTVSPropertyOp38
 70
     1
102
RTVSPropertyOp39
 70
     1
102
RTVSPropertyOp40
 70
     1
102
RTVSPropertyOp41
 70
     1
102
RTVSPropertyOp42
 70
     1
102
RTVSPropertyOp43
 70
     1
102
RTVSPropertyOp44
 70
     1
102
RTVSPropertyOp45
 70
     1
102
RTVSPropertyOp46
 70
     1
102
RTVSPropertyOp47
 70
     1
102
RTVSPropertyOp48
 70
     1
102
RTVSPropertyOp49
 70
     1
102
RTVSPropertyOp50
 70
     1
102
RTVSPropertyOp51
 70
     0
102
RTVSPropertyOp52
 70
     0
102
RTVSPropertyOp53
 70
     1
102
RTVSPropertyOp54
 70
     1
102
RTVSPropertyOp55
 70
     1
102
RTVSPropertyOp56
 70
     1
102
RTVSPropertyOp57
 70
     1
102
RTVSPropertyOp58
 70
     1
102
RTVSPropertyOp59
 70
     1
102
RTVSPropertyOp60
 70
     1
102
RTVSPropertyOp61
 70
     1
102
RTVSPropertyOp62
 70
     1
  0
XRECORD
  5
5EC
102
{ACAD_REACTORS
330
5EB
102
}
330
5EB
100
AcDbXrecord
280
     1
102
RTVSPost2010Prop28
280
     0
102
RTVSPost2010PropOp28
 70
     1
102
RTVSPost2010Prop29
280
     1
102
RTVSPost2010PropOp29
 70
     1
102
RTVSPost2010Prop30
280
     1
102
RTVSPost2010PropOp30
 70
     1
102
RTVSPost2010Prop31
280
     0
102
RTVSPost2010PropOp31
 70
     1
102
RTVSPost2010Prop32
280
     0
102
RTVSPost2010PropOp32
 70
     1
102
RTVSPost2010Prop33
280
     0
102
RTVSPost2010PropOp33
 70
     1
102
RTVSPost2010Prop34
280
     0
102
RTVSPost2010PropOp34
 70
     1
102
RTVSPost2010Prop35
280
     0
102
RTVSPost2010PropOp35
 70
     1
102
RTVSPost2010Prop36
280
     0
102
RTVSPost2010PropOp36
 70
     1
102
RTVSPost2010Prop37
 90
       50
102
RTVSPost2010PropOp37
 70
     1
102
RTVSPost2010Prop38
140
0.0
102
RTVSPost2010PropOp38
 70
     1
102
RTVSPost2010Prop39
140
1.0
102
RTVSPost2010PropOp39
 70
     1
102
RTVSPost2010Prop40
 90
        0
102
RTVSPost2010PropOp40
 70
     1
102
RTVSPost2010Prop41ColorIndex
 90
       18
102
RTVSPost2010Prop41ColorRGB
 90
        0
102
RTVSPost2010PropOp41
 70
     1
102
RTVSPost2010Prop42
 90
       50
102
RTVSPost2010PropOp42
 70
     1
102
RTVSPost2010Prop43
 90
        3
102
RTVSPost2010PropOp43
 70
     1
102
RTVSPost2010Prop44ColorIndex
 90
        5
102
RTVSPost2010Prop44ColorRGB
 90
      255
102
RTVSPost2010PropOp44
 70
     1
102
RTVSPost2010Prop45
280
     0
102
RTVSPost2010PropOp45
 70
     1
102
RTVSPost2010Prop46
 90
       50
102
RTVSPost2010PropOp46
 70
     1
102
RTVSPost2010Prop47
 90
       50
102
RTVSPost2010PropOp47
 70
     1
102
RTVSPost2010Prop48
 90
       50
102
RTVSPost2010PropOp48
 70
     1
102
RTVSPost2010Prop49
280
     0
102
RTVSPost2010PropOp49
 70
     1
102
RTVSPost2010Prop50
 90
       50
102
RTVSPost2010PropOp50
 70
     1
102
RTVSPost2010Prop51ColorIndex
 90
      256
102
RTVSPost2010Prop51ColorRGB
 90
-16777216
102
RTVSPost2010PropOp51
 70
     0
102
RTVSPost2010Prop52
140
1.0
102
RTVSPost2010PropOp52
 70
     0
102
RTVSPost2010Prop53
 90
        2
102
RTVSPost2010PropOp53
 70
     1
102
RTVSPost2010Prop54
  1
strokes_ogs.tif
102
RTVSPost2010PropOp54
 70
     1
102
RTVSPost2010Prop55
280
     0
102
RTVSPost2010PropOp55
 70
     1
102
RTVSPost2010Prop56
140
1.0
102
RTVSPost2010PropOp56
 70
     1
102
RTVSPost2010Prop57
140
1.0
102
RTVSPost2010PropOp57
 70
     1
102
RTVSPropertyOp0
 70
     1
102
RTVSPropertyOp1
 70
     1
102
RTVSPropertyOp2
 70
     1
102
RTVSPropertyOp3
 70
     1
102
RTVSPropertyOp4
 70
     1
102
RTVSPropertyOp5
 70
     1
102
RTVSPropertyOp6
 70
     1
102
RTVSPropertyOp7
 70
     1
102
RTVSPropertyOp8
 70
     1
102
RTVSPropertyOp9
 70
     1
102
RTVSPropertyOp10
 70
     1
102
RTVSPropertyOp11
 70
     1
102
RTVSPropertyOp12
 70
     1
102
RTVSPropertyOp13
 70
     1
102
RTVSPropertyOp14
 70
     1
102
RTVSPropertyOp15
 70
     1
102
RTVSPropertyOp16
 70
     1
102
RTVSPropertyOp17
 70
     1
102
RTVSPropertyOp18
 70
     1
102
RTVSPropertyOp19
 70
     1
102
RTVSPropertyOp20
 70
     1
102
RTVSPropertyOp21
 70
     1
102
RTVSPropertyOp22
 70
     1
102
RTVSPropertyOp23
 70
     1
102
RTVSPropertyOp24
 70
     1
102
RTVSPropertyOp25
 70
     1
102
RTVSPropertyOp26
 70
     1
102
RTVSPropertyOp27
 70
     1
102
RTVSPropertyOp28
 70
     1
102
RTVSPropertyOp29
 70
     1
102
RTVSPropertyOp30
 70
     1
102
RTVSPropertyOp31
 70
     1
102
RTVSPropertyOp32
 70
     1
102
RTVSPropertyOp33
 70
     1
102
RTVSPropertyOp34
 70
     1
102
RTVSPropertyOp35
 70
     1
102
RTVSPropertyOp36
 70
     1
102
RTVSPropertyOp37
 70
     1
102
RTVSPropertyOp38
 70
     1
102
RTVSPropertyOp39
 70
     1
102
RTVSPropertyOp40
 70
     1
102
RTVSPropertyOp41
 70
     1
102
RTVSPropertyOp42
 70
     1
102
RTVSPropertyOp43
 70
     1
102
RTVSPropertyOp44
 70
     1
102
RTVSPropertyOp45
 70
     1
102
RTVSPropertyOp46
 70
     1
102
RTVSPropertyOp47
 70
     1
102
RTVSPropertyOp48
 70
     1
102
RTVSPropertyOp49
 70
     1
102
RTVSPropertyOp50
 70
     1
102
RTVSPropertyOp51
 70
     0
102
RTVSPropertyOp52
 70
     0
102
RTVSPropertyOp53
 70
     1
102
RTVSPropertyOp54
 70
     1
102
RTVSPropertyOp55
 70
     1
102
RTVSPropertyOp56
 70
     1
102
RTVSPropertyOp57
 70
     1
102
RTVSPropertyOp58
 70
     1
102
RTVSPropertyOp59
 70
     1
102
RTVSPropertyOp60
 70
     1
102
RTVSPropertyOp61
 70
     1
102
RTVSPropertyOp62
 70
     1
  0
XRECORD
  5
5EE
102
{ACAD_REACTORS
330
5ED
102
}
330
5ED
100
AcDbXrecord
280
     1
102
RTVSPost2010Prop28
280
     0
102
RTVSPost2010PropOp28
 70
     1
102
RTVSPost2010Prop29
280
     1
102
RTVSPost2010PropOp29
 70
     1
102
RTVSPost2010Prop30
280
     1
102
RTVSPost2010PropOp30
 70
     1
102
RTVSPost2010Prop31
280
     0
102
RTVSPost2010PropOp31
 70
     1
102
RTVSPost2010Prop32
280
     0
102
RTVSPost2010PropOp32
 70
     1
102
RTVSPost2010Prop33
280
     0
102
RTVSPost2010PropOp33
 70
     1
102
RTVSPost2010Prop34
280
     0
102
RTVSPost2010PropOp34
 70
     1
102
RTVSPost2010Prop35
280
     0
102
RTVSPost2010PropOp35
 70
     1
102
RTVSPost2010Prop36
280
     0
102
RTVSPost2010PropOp36
 70
     1
102
RTVSPost2010Prop37
 90
       50
102
RTVSPost2010PropOp37
 70
     1
102
RTVSPost2010Prop38
140
0.0
102
RTVSPost2010PropOp38
 70
     1
102
RTVSPost2010Prop39
140
1.0
102
RTVSPost2010PropOp39
 70
     1
102
RTVSPost2010Prop40
 90
        0
102
RTVSPost2010PropOp40
 70
     1
102
RTVSPost2010Prop41ColorIndex
 90
       18
102
RTVSPost2010Prop41ColorRGB
 90
        0
102
RTVSPost2010PropOp41
 70
     1
102
RTVSPost2010Prop42
 90
       50
102
RTVSPost2010PropOp42
 70
     1
102
RTVSPost2010Prop43
 90
        3
102
RTVSPost2010PropOp43
 70
     1
102
RTVSPost2010Prop44ColorIndex
 90
        5
102
RTVSPost2010Prop44ColorRGB
 90
      255
102
RTVSPost2010PropOp44
 70
     1
102
RTVSPost2010Prop45
280
     0
102
RTVSPost2010PropOp45
 70
     1
102
RTVSPost2010Prop46
 90
       50
102
RTVSPost2010PropOp46
 70
     1
102
RTVSPost2010Prop47
 90
       50
102
RTVSPost2010PropOp47
 70
     1
102
RTVSPost2010Prop48
 90
       50
102
RTVSPost2010PropOp48
 70
     1
102
RTVSPost2010Prop49
280
     0
102
RTVSPost2010PropOp49
 70
     1
102
RTVSPost2010Prop50
 90
       50
102
RTVSPost2010PropOp50
 70
     1
102
RTVSPost2010Prop51ColorIndex
 90
      256
102
RTVSPost2010Prop51ColorRGB
 90
-16777216
102
RTVSPost2010PropOp51
 70
     0
102
RTVSPost2010Prop52
140
1.0
102
RTVSPost2010PropOp52
 70
     0
102
RTVSPost2010Prop53
 90
        2
102
RTVSPost2010PropOp53
 70
     1
102
RTVSPost2010Prop54
  1
strokes_ogs.tif
102
RTVSPost2010PropOp54
 70
     1
102
RTVSPost2010Prop55
280
     0
102
RTVSPost2010PropOp55
 70
     1
102
RTVSPost2010Prop56
140
1.0
102
RTVSPost2010PropOp56
 70
     1
102
RTVSPost2010Prop57
140
1.0
102
RTVSPost2010PropOp57
 70
     1
102
RTVSPropertyOp0
 70
     1
102
RTVSPropertyOp1
 70
     1
102
RTVSPropertyOp2
 70
     1
102
RTVSPropertyOp3
 70
     1
102
RTVSPropertyOp4
 70
     1
102
RTVSPropertyOp5
 70
     1
102
RTVSPropertyOp6
 70
     1
102
RTVSPropertyOp7
 70
     1
102
RTVSPropertyOp8
 70
     1
102
RTVSPropertyOp9
 70
     1
102
RTVSPropertyOp10
 70
     1
102
RTVSPropertyOp11
 70
     1
102
RTVSPropertyOp12
 70
     1
102
RTVSPropertyOp13
 70
     1
102
RTVSPropertyOp14
 70
     1
102
RTVSPropertyOp15
 70
     1
102
RTVSPropertyOp16
 70
     1
102
RTVSPropertyOp17
 70
     1
102
RTVSPropertyOp18
 70
     1
102
RTVSPropertyOp19
 70
     1
102
RTVSPropertyOp20
 70
     1
102
RTVSPropertyOp21
 70
     1
102
RTVSPropertyOp22
 70
     1
102
RTVSPropertyOp23
 70
     1
102
RTVSPropertyOp24
 70
     1
102
RTVSPropertyOp25
 70
     1
102
RTVSPropertyOp26
 70
     1
102
RTVSPropertyOp27
 70
     1
102
RTVSPropertyOp28
 70
     1
102
RTVSPropertyOp29
 70
     1
102
RTVSPropertyOp30
 70
     1
102
RTVSPropertyOp31
 70
     1
102
RTVSPropertyOp32
 70
     1
102
RTVSPropertyOp33
 70
     1
102
RTVSPropertyOp34
 70
     1
102
RTVSPropertyOp35
 70
     1
102
RTVSPropertyOp36
 70
     1
102
RTVSPropertyOp37
 70
     1
102
RTVSPropertyOp38
 70
     1
102
RTVSPropertyOp39
 70
     1
102
RTVSPropertyOp40
 70
     1
102
RTVSPropertyOp41
 70
     1
102
RTVSPropertyOp42
 70
     1
102
RTVSPropertyOp43
 70
     1
102
RTVSPropertyOp44
 70
     1
102
RTVSPropertyOp45
 70
     1
102
RTVSPropertyOp46
 70
     1
102
RTVSPropertyOp47
 70
     1
102
RTVSPropertyOp48
 70
     1
102
RTVSPropertyOp49
 70
     1
102
RTVSPropertyOp50
 70
     1
102
RTVSPropertyOp51
 70
     0
102
RTVSPropertyOp52
 70
     0
102
RTVSPropertyOp53
 70
     1
102
RTVSPropertyOp54
 70
     1
102
RTVSPropertyOp55
 70
     1
102
RTVSPropertyOp56
 70
     1
102
RTVSPropertyOp57
 70
     1
102
RTVSPropertyOp58
 70
     1
102
RTVSPropertyOp59
 70
     1
102
RTVSPropertyOp60
 70
     1
102
RTVSPropertyOp61
 70
     1
102
RTVSPropertyOp62
 70
     1
  0
XRECORD
  5
5D3
102
{ACAD_REACTORS
330
5D2
102
}
330
5D2
100
AcDbXrecord
280
     1
102
RTVSPost2010Prop28
280
     0
102
RTVSPost2010PropOp28
 70
     1
102
RTVSPost2010Prop29
280
     1
102
RTVSPost2010PropOp29
 70
     1
102
RTVSPost2010Prop30
280
     1
102
RTVSPost2010PropOp30
 70
     1
102
RTVSPost2010Prop31
280
     0
102
RTVSPost2010PropOp31
 70
     1
102
RTVSPost2010Prop32
280
     0
102
RTVSPost2010PropOp32
 70
     1
102
RTVSPost2010Prop33
280
     0
102
RTVSPost2010PropOp33
 70
     1
102
RTVSPost2010Prop34
280
     0
102
RTVSPost2010PropOp34
 70
     1
102
RTVSPost2010Prop35
280
     0
102
RTVSPost2010PropOp35
 70
     1
102
RTVSPost2010Prop36
280
     0
102
RTVSPost2010PropOp36
 70
     1
102
RTVSPost2010Prop37
 90
       50
102
RTVSPost2010PropOp37
 70
     1
102
RTVSPost2010Prop38
140
0.0
102
RTVSPost2010PropOp38
 70
     1
102
RTVSPost2010Prop39
140
1.0
102
RTVSPost2010PropOp39
 70
     1
102
RTVSPost2010Prop40
 90
        0
102
RTVSPost2010PropOp40
 70
     1
102
RTVSPost2010Prop41ColorIndex
 90
       18
102
RTVSPost2010Prop41ColorRGB
 90
        0
102
RTVSPost2010PropOp41
 70
     1
102
RTVSPost2010Prop42
 90
       50
102
RTVSPost2010PropOp42
 70
     1
102
RTVSPost2010Prop43
 90
        3
102
RTVSPost2010PropOp43
 70
     1
102
RTVSPost2010Prop44ColorIndex
 90
        5
102
RTVSPost2010Prop44ColorRGB
 90
      255
102
RTVSPost2010PropOp44
 70
     1
102
RTVSPost2010Prop45
280
     0
102
RTVSPost2010PropOp45
 70
     1
102
RTVSPost2010Prop46
 90
       50
102
RTVSPost2010PropOp46
 70
     1
102
RTVSPost2010Prop47
 90
       50
102
RTVSPost2010PropOp47
 70
     1
102
RTVSPost2010Prop48
 90
       50
102
RTVSPost2010PropOp48
 70
     1
102
RTVSPost2010Prop49
280
     0
102
RTVSPost2010PropOp49
 70
     1
102
RTVSPost2010Prop50
 90
       50
102
RTVSPost2010PropOp50
 70
     1
102
RTVSPost2010Prop51ColorIndex
 90
      256
102
RTVSPost2010Prop51ColorRGB
 90
-16777216
102
RTVSPost2010PropOp51
 70
     0
102
RTVSPost2010Prop52
140
1.0
102
RTVSPost2010PropOp52
 70
     0
102
RTVSPost2010Prop53
 90
        2
102
RTVSPost2010PropOp53
 70
     1
102
RTVSPost2010Prop54
  1
strokes_ogs.tif
102
RTVSPost2010PropOp54
 70
     1
102
RTVSPost2010Prop55
280
     0
102
RTVSPost2010PropOp55
 70
     1
102
RTVSPost2010Prop56
140
1.0
102
RTVSPost2010PropOp56
 70
     1
102
RTVSPost2010Prop57
140
1.0
102
RTVSPost2010PropOp57
 70
     1
102
RTVSPropertyOp0
 70
     1
102
RTVSPropertyOp1
 70
     1
102
RTVSPropertyOp2
 70
     1
102
RTVSPropertyOp3
 70
     1
102
RTVSPropertyOp4
 70
     1
102
RTVSPropertyOp5
 70
     1
102
RTVSPropertyOp6
 70
     1
102
RTVSPropertyOp7
 70
     1
102
RTVSPropertyOp8
 70
     1
102
RTVSPropertyOp9
 70
     1
102
RTVSPropertyOp10
 70
     1
102
RTVSPropertyOp11
 70
     1
102
RTVSPropertyOp12
 70
     1
102
RTVSPropertyOp13
 70
     1
102
RTVSPropertyOp14
 70
     1
102
RTVSPropertyOp15
 70
     1
102
RTVSPropertyOp16
 70
     1
102
RTVSPropertyOp17
 70
     1
102
RTVSPropertyOp18
 70
     1
102
RTVSPropertyOp19
 70
     1
102
RTVSPropertyOp20
 70
     1
102
RTVSPropertyOp21
 70
     1
102
RTVSPropertyOp22
 70
     1
102
RTVSPropertyOp23
 70
     1
102
RTVSPropertyOp24
 70
     1
102
RTVSPropertyOp25
 70
     1
102
RTVSPropertyOp26
 70
     1
102
RTVSPropertyOp27
 70
     1
102
RTVSPropertyOp28
 70
     1
102
RTVSPropertyOp29
 70
     1
102
RTVSPropertyOp30
 70
     1
102
RTVSPropertyOp31
 70
     1
102
RTVSPropertyOp32
 70
     1
102
RTVSPropertyOp33
 70
     1
102
RTVSPropertyOp34
 70
     1
102
RTVSPropertyOp35
 70
     1
102
RTVSPropertyOp36
 70
     1
102
RTVSPropertyOp37
 70
     1
102
RTVSPropertyOp38
 70
     1
102
RTVSPropertyOp39
 70
     1
102
RTVSPropertyOp40
 70
     1
102
RTVSPropertyOp41
 70
     1
102
RTVSPropertyOp42
 70
     1
102
RTVSPropertyOp43
 70
     1
102
RTVSPropertyOp44
 70
     1
102
RTVSPropertyOp45
 70
     1
102
RTVSPropertyOp46
 70
     1
102
RTVSPropertyOp47
 70
     1
102
RTVSPropertyOp48
 70
     1
102
RTVSPropertyOp49
 70
     1
102
RTVSPropertyOp50
 70
     1
102
RTVSPropertyOp51
 70
     0
102
RTVSPropertyOp52
 70
     0
102
RTVSPropertyOp53
 70
     1
102
RTVSPropertyOp54
 70
     1
102
RTVSPropertyOp55
 70
     1
102
RTVSPropertyOp56
 70
     1
102
RTVSPropertyOp57
 70
     1
102
RTVSPropertyOp58
 70
     1
102
RTVSPropertyOp59
 70
     1
102
RTVSPropertyOp60
 70
     1
102
RTVSPropertyOp61
 70
     1
102
RTVSPropertyOp62
 70
     1
  0
XRECORD
  5
5E8
102
{ACAD_REACTORS
330
5E7
102
}
330
5E7
100
AcDbXrecord
280
     1
102
RTVSPost2010Prop28
280
     0
102
RTVSPost2010PropOp28
 70
     1
102
RTVSPost2010Prop29
280
     1
102
RTVSPost2010PropOp29
 70
     1
102
RTVSPost2010Prop30
280
     1
102
RTVSPost2010PropOp30
 70
     1
102
RTVSPost2010Prop31
280
     0
102
RTVSPost2010PropOp31
 70
     1
102
RTVSPost2010Prop32
280
     0
102
RTVSPost2010PropOp32
 70
     1
102
RTVSPost2010Prop33
280
     0
102
RTVSPost2010PropOp33
 70
     1
102
RTVSPost2010Prop34
280
     0
102
RTVSPost2010PropOp34
 70
     1
102
RTVSPost2010Prop35
280
     0
102
RTVSPost2010PropOp35
 70
     1
102
RTVSPost2010Prop36
280
     0
102
RTVSPost2010PropOp36
 70
     1
102
RTVSPost2010Prop37
 90
       50
102
RTVSPost2010PropOp37
 70
     1
102
RTVSPost2010Prop38
140
0.0
102
RTVSPost2010PropOp38
 70
     1
102
RTVSPost2010Prop39
140
1.0
102
RTVSPost2010PropOp39
 70
     1
102
RTVSPost2010Prop40
 90
        0
102
RTVSPost2010PropOp40
 70
     1
102
RTVSPost2010Prop41ColorIndex
 90
       18
102
RTVSPost2010Prop41ColorRGB
 90
        0
102
RTVSPost2010PropOp41
 70
     1
102
RTVSPost2010Prop42
 90
       50
102
RTVSPost2010PropOp42
 70
     1
102
RTVSPost2010Prop43
 90
        3
102
RTVSPost2010PropOp43
 70
     1
102
RTVSPost2010Prop44ColorIndex
 90
        5
102
RTVSPost2010Prop44ColorRGB
 90
      255
102
RTVSPost2010PropOp44
 70
     1
102
RTVSPost2010Prop45
280
     0
102
RTVSPost2010PropOp45
 70
     1
102
RTVSPost2010Prop46
 90
       50
102
RTVSPost2010PropOp46
 70
     1
102
RTVSPost2010Prop47
 90
       50
102
RTVSPost2010PropOp47
 70
     1
102
RTVSPost2010Prop48
 90
       50
102
RTVSPost2010PropOp48
 70
     1
102
RTVSPost2010Prop49
280
     0
102
RTVSPost2010PropOp49
 70
     1
102
RTVSPost2010Prop50
 90
       50
102
RTVSPost2010PropOp50
 70
     1
102
RTVSPost2010Prop51ColorIndex
 90
      256
102
RTVSPost2010Prop51ColorRGB
 90
-16777216
102
RTVSPost2010PropOp51
 70
     0
102
RTVSPost2010Prop52
140
1.0
102
RTVSPost2010PropOp52
 70
     0
102
RTVSPost2010Prop53
 90
        2
102
RTVSPost2010PropOp53
 70
     1
102
RTVSPost2010Prop54
  1
strokes_ogs.tif
102
RTVSPost2010PropOp54
 70
     1
102
RTVSPost2010Prop55
280
     0
102
RTVSPost2010PropOp55
 70
     1
102
RTVSPost2010Prop56
140
1.0
102
RTVSPost2010PropOp56
 70
     1
102
RTVSPost2010Prop57
140
1.0
102
RTVSPost2010PropOp57
 70
     1
102
RTVSPropertyOp0
 70
     1
102
RTVSPropertyOp1
 70
     1
102
RTVSPropertyOp2
 70
     1
102
RTVSPropertyOp3
 70
     1
102
RTVSPropertyOp4
 70
     1
102
RTVSPropertyOp5
 70
     1
102
RTVSPropertyOp6
 70
     1
102
RTVSPropertyOp7
 70
     1
102
RTVSPropertyOp8
 70
     1
102
RTVSPropertyOp9
 70
     1
102
RTVSPropertyOp10
 70
     1
102
RTVSPropertyOp11
 70
     1
102
RTVSPropertyOp12
 70
     1
102
RTVSPropertyOp13
 70
     1
102
RTVSPropertyOp14
 70
     1
102
RTVSPropertyOp15
 70
     1
102
RTVSPropertyOp16
 70
     1
102
RTVSPropertyOp17
 70
     1
102
RTVSPropertyOp18
 70
     1
102
RTVSPropertyOp19
 70
     1
102
RTVSPropertyOp20
 70
     1
102
RTVSPropertyOp21
 70
     1
102
RTVSPropertyOp22
 70
     1
102
RTVSPropertyOp23
 70
     1
102
RTVSPropertyOp24
 70
     1
102
RTVSPropertyOp25
 70
     1
102
RTVSPropertyOp26
 70
     1
102
RTVSPropertyOp27
 70
     1
102
RTVSPropertyOp28
 70
     1
102
RTVSPropertyOp29
 70
     1
102
RTVSPropertyOp30
 70
     1
102
RTVSPropertyOp31
 70
     1
102
RTVSPropertyOp32
 70
     1
102
RTVSPropertyOp33
 70
     1
102
RTVSPropertyOp34
 70
     1
102
RTVSPropertyOp35
 70
     1
102
RTVSPropertyOp36
 70
     1
102
RTVSPropertyOp37
 70
     1
102
RTVSPropertyOp38
 70
     1
102
RTVSPropertyOp39
 70
     1
102
RTVSPropertyOp40
 70
     1
102
RTVSPropertyOp41
 70
     1
102
RTVSPropertyOp42
 70
     1
102
RTVSPropertyOp43
 70
     1
102
RTVSPropertyOp44
 70
     1
102
RTVSPropertyOp45
 70
     1
102
RTVSPropertyOp46
 70
     1
102
RTVSPropertyOp47
 70
     1
102
RTVSPropertyOp48
 70
     1
102
RTVSPropertyOp49
 70
     1
102
RTVSPropertyOp50
 70
     1
102
RTVSPropertyOp51
 70
     0
102
RTVSPropertyOp52
 70
     0
102
RTVSPropertyOp53
 70
     1
102
RTVSPropertyOp54
 70
     1
102
RTVSPropertyOp55
 70
     1
102
RTVSPropertyOp56
 70
     1
102
RTVSPropertyOp57
 70
     1
102
RTVSPropertyOp58
 70
     1
102
RTVSPropertyOp59
 70
     1
102
RTVSPropertyOp60
 70
     1
102
RTVSPropertyOp61
 70
     1
102
RTVSPropertyOp62
 70
     1
  0
XRECORD
  5
5F0
102
{ACAD_REACTORS
330
5EF
102
}
330
5EF
100
AcDbXrecord
280
     1
102
RTVSPost2010Prop28
280
     0
102
RTVSPost2010PropOp28
 70
     1
102
RTVSPost2010Prop29
280
     1
102
RTVSPost2010PropOp29
 70
     1
102
RTVSPost2010Prop30
280
     1
102
RTVSPost2010PropOp30
 70
     1
102
RTVSPost2010Prop31
280
     0
102
RTVSPost2010PropOp31
 70
     1
102
RTVSPost2010Prop32
280
     0
102
RTVSPost2010PropOp32
 70
     1
102
RTVSPost2010Prop33
280
     0
102
RTVSPost2010PropOp33
 70
     1
102
RTVSPost2010Prop34
280
     0
102
RTVSPost2010PropOp34
 70
     1
102
RTVSPost2010Prop35
280
     0
102
RTVSPost2010PropOp35
 70
     1
102
RTVSPost2010Prop36
280
     0
102
RTVSPost2010PropOp36
 70
     1
102
RTVSPost2010Prop37
 90
       50
102
RTVSPost2010PropOp37
 70
     1
102
RTVSPost2010Prop38
140
0.0
102
RTVSPost2010PropOp38
 70
     1
102
RTVSPost2010Prop39
140
1.0
102
RTVSPost2010PropOp39
 70
     1
102
RTVSPost2010Prop40
 90
        0
102
RTVSPost2010PropOp40
 70
     1
102
RTVSPost2010Prop41ColorIndex
 90
       18
102
RTVSPost2010Prop41ColorRGB
 90
        0
102
RTVSPost2010PropOp41
 70
     1
102
RTVSPost2010Prop42
 90
       50
102
RTVSPost2010PropOp42
 70
     1
102
RTVSPost2010Prop43
 90
        3
102
RTVSPost2010PropOp43
 70
     1
102
RTVSPost2010Prop44ColorIndex
 90
        5
102
RTVSPost2010Prop44ColorRGB
 90
      255
102
RTVSPost2010PropOp44
 70
     1
102
RTVSPost2010Prop45
280
     0
102
RTVSPost2010PropOp45
 70
     1
102
RTVSPost2010Prop46
 90
       50
102
RTVSPost2010PropOp46
 70
     1
102
RTVSPost2010Prop47
 90
       50
102
RTVSPost2010PropOp47
 70
     1
102
RTVSPost2010Prop48
 90
       50
102
RTVSPost2010PropOp48
 70
     1
102
RTVSPost2010Prop49
280
     0
102
RTVSPost2010PropOp49
 70
     1
102
RTVSPost2010Prop50
 90
       50
102
RTVSPost2010PropOp50
 70
     1
102
RTVSPost2010Prop51ColorIndex
 90
      256
102
RTVSPost2010Prop51ColorRGB
 90
-16777216
102
RTVSPost2010PropOp51
 70
     0
102
RTVSPost2010Prop52
140
1.0
102
RTVSPost2010PropOp52
 70
     0
102
RTVSPost2010Prop53
 90
        2
102
RTVSPost2010PropOp53
 70
     1
102
RTVSPost2010Prop54
  1
strokes_ogs.tif
102
RTVSPost2010PropOp54
 70
     1
102
RTVSPost2010Prop55
280
     0
102
RTVSPost2010PropOp55
 70
     1
102
RTVSPost2010Prop56
140
1.0
102
RTVSPost2010PropOp56
 70
     1
102
RTVSPost2010Prop57
140
1.0
102
RTVSPost2010PropOp57
 70
     1
102
RTVSPropertyOp0
 70
     1
102
RTVSPropertyOp1
 70
     1
102
RTVSPropertyOp2
 70
     1
102
RTVSPropertyOp3
 70
     1
102
RTVSPropertyOp4
 70
     1
102
RTVSPropertyOp5
 70
     1
102
RTVSPropertyOp6
 70
     1
102
RTVSPropertyOp7
 70
     1
102
RTVSPropertyOp8
 70
     1
102
RTVSPropertyOp9
 70
     1
102
RTVSPropertyOp10
 70
     1
102
RTVSPropertyOp11
 70
     1
102
RTVSPropertyOp12
 70
     1
102
RTVSPropertyOp13
 70
     1
102
RTVSPropertyOp14
 70
     1
102
RTVSPropertyOp15
 70
     1
102
RTVSPropertyOp16
 70
     1
102
RTVSPropertyOp17
 70
     1
102
RTVSPropertyOp18
 70
     1
102
RTVSPropertyOp19
 70
     1
102
RTVSPropertyOp20
 70
     1
102
RTVSPropertyOp21
 70
     1
102
RTVSPropertyOp22
 70
     1
102
RTVSPropertyOp23
 70
     1
102
RTVSPropertyOp24
 70
     1
102
RTVSPropertyOp25
 70
     1
102
RTVSPropertyOp26
 70
     1
102
RTVSPropertyOp27
 70
     1
102
RTVSPropertyOp28
 70
     1
102
RTVSPropertyOp29
 70
     1
102
RTVSPropertyOp30
 70
     1
102
RTVSPropertyOp31
 70
     1
102
RTVSPropertyOp32
 70
     1
102
RTVSPropertyOp33
 70
     1
102
RTVSPropertyOp34
 70
     1
102
RTVSPropertyOp35
 70
     1
102
RTVSPropertyOp36
 70
     1
102
RTVSPropertyOp37
 70
     1
102
RTVSPropertyOp38
 70
     1
102
RTVSPropertyOp39
 70
     1
102
RTVSPropertyOp40
 70
     1
102
RTVSPropertyOp41
 70
     1
102
RTVSPropertyOp42
 70
     1
102
RTVSPropertyOp43
 70
     1
102
RTVSPropertyOp44
 70
     1
102
RTVSPropertyOp45
 70
     1
102
RTVSPropertyOp46
 70
     1
102
RTVSPropertyOp47
 70
     1
102
RTVSPropertyOp48
 70
     1
102
RTVSPropertyOp49
 70
     1
102
RTVSPropertyOp50
 70
     1
102
RTVSPropertyOp51
 70
     0
102
RTVSPropertyOp52
 70
     0
102
RTVSPropertyOp53
 70
     1
102
RTVSPropertyOp54
 70
     1
102
RTVSPropertyOp55
 70
     1
102
RTVSPropertyOp56
 70
     1
102
RTVSPropertyOp57
 70
     1
102
RTVSPropertyOp58
 70
     1
102
RTVSPropertyOp59
 70
     1
102
RTVSPropertyOp60
 70
     1
102
RTVSPropertyOp61
 70
     1
102
RTVSPropertyOp62
 70
     1
  0
ENDSEC
  0
EOF
