  0
SECTION
  2
HEADER
  9
$ACADVER
  1
AC1015
  9
$ACADMAINTVER
 70
    20
  9
$DWGCODEPAGE
  3
ANSI_1252
  9
$INSBASE
 10
0.0
 20
0.0
 30
0.0
  9
$EXTMIN
 10
27.49999999999971
 20
27.49999999999986
 30
0.0
  9
$EXTMAX
 10
1127.5
 20
1606.0
 30
0.0
  9
$LIMMIN
 10
0.0
 20
0.0
  9
$LIMMAX
 10
1155.0
 20
1633.5
  9
$ORTHOMODE
 70
     0
  9
$REGENMODE
 70
     1
  9
$FILLMODE
 70
     1
  9
$QTEXTMODE
 70
     0
  9
$MIRRTEXT
 70
     0
  9
$LTSCALE
 40
5.5
  9
$ATTMODE
 70
     1
  9
$TEXTSIZE
 40
0.2
  9
$TRACEWID
 40
0.05
  9
$TEXTSTYLE
  7
Standard
  9
$CLAYER
  8
0
  9
$CELTYPE
  6
ByLayer
  9
$CECOLOR
 62
   256
  9
$CELTSCALE
 40
1.0
  9
$DISPSILH
 70
     0
  9
$DIMSCALE
 40
1.0
  9
$DIMASZ
 40
1.799999999999999
  9
$DIMEXO
 40
0.0625
  9
$DIMDLI
 40
0.38
  9
$DIMRND
 40
0.0
  9
$DIMDLE
 40
0.0
  9
$DIMEXE
 40
0.18
  9
$DIMTP
 40
0.0
  9
$DIMTM
 40
0.0
  9
$DIMTXT
 40
0.3048000037670135
  9
$DIMCEN
 40
0.09
  9
$DIMTSZ
 40
0.0
  9
$DIMTOL
 70
     0
  9
$DIMLIM
 70
     0
  9
$DIMTIH
 70
     1
  9
$DIMTOH
 70
     1
  9
$DIMSE1
 70
     0
  9
$DIMSE2
 70
     0
  9
$DIMTAD
 70
     0
  9
$DIMZIN
 70
     0
  9
$DIMBLK
  1

  9
$DIMASO
 70
     1
  9
$DIMSHO
 70
     1
  9
$DIMPOST
  1

  9
$DIMAPOST
  1

  9
$DIMALT
 70
     0
  9
$DIMALTD
 70
     2
  9
$DIMALTF
 40
25.4
  9
$DIMLFAC
 40
1.0
  9
$DIMTOFL
 70
     0
  9
$DIMTVP
 40
0.0
  9
$DIMTIX
 70
     0
  9
$DIMSOXD
 70
     0
  9
$DIMSAH
 70
     0
  9
$DIMBLK1
  1

  9
$DIMBLK2
  1

  9
$DIMSTYLE
  2
Standard
  9
$DIMCLRD
 70
     0
  9
$DIMCLRE
 70
     0
  9
$DIMCLRT
 70
     0
  9
$DIMTFAC
 40
1.0
  9
$DIMGAP
 40
0.09
  9
$DIMJUST
 70
     0
  9
$DIMSD1
 70
     0
  9
$DIMSD2
 70
     0
  9
$DIMTOLJ
 70
     1
  9
$DIMTZIN
 70
     0
  9
$DIMALTZ
 70
     0
  9
$DIMALTTZ
 70
     0
  9
$DIMUPT
 70
     0
  9
$DIMDEC
 70
     4
  9
$DIMTDEC
 70
     4
  9
$DIMALTU
 70
     2
  9
$DIMALTTD
 70
     2
  9
$DIMTXSTY
  7
Standard
  9
$DIMAUNIT
 70
     0
  9
$DIMADEC
 70
     0
  9
$DIMALTRND
 40
0.0
  9
$DIMAZIN
 70
     0
  9
$DIMDSEP
 70
    46
  9
$DIMATFIT
 70
     3
  9
$DIMFRAC
 70
     0
  9
$DIMLDRBLK
  1

  9
$DIMLUNIT
 70
     2
  9
$DIMLWD
 70
    -2
  9
$DIMLWE
 70
    -2
  9
$DIMTMOVE
 70
     0
  9
$LUNITS
 70
     2
  9
$LUPREC
 70
     4
  9
$SKETCHINC
 40
0.1
  9
$FILLETRAD
 40
0.0
  9
$AUNITS
 70
     0
  9
$AUPREC
 70
     0
  9
$MENU
  1
.
  9
$ELEVATION
 40
0.0
  9
$PELEVATION
 40
0.0
  9
$THICKNESS
 40
0.0
  9
$LIMCHECK
 70
     0
  9
$CHAMFERA
 40
0.0
  9
$CHAMFERB
 40
0.0
  9
$CHAMFERC
 40
0.0
  9
$CHAMFERD
 40
0.0
  9
$SKPOLY
 70
     0
  9
$TDCREATE
 40
2455813.721736111
  9
$TDUCREATE
 40
2455813.638412292
  9
$TDUPDATE
 40
2460056.552268519
  9
$TDUUPDATE
 40
2460056.468935185
  9
$TDINDWG
 40
0.0006193981
  9
$TDUSRTIMER
 40
0.0006193981
  9
$USRTIMER
 70
     1
  9
$ANGBASE
 50
0.0
  9
$ANGDIR
 70
     0
  9
$PDMODE
 70
     0
  9
$PDSIZE
 40
0.0
  9
$PLINEWID
 40
0.0
  9
$SPLFRAME
 70
     0
  9
$SPLINETYPE
 70
     6
  9
$SPLINESEGS
 70
     8
  9
$HANDSEED
  5
69F
  9
$SURFTAB1
 70
     6
  9
$SURFTAB2
 70
     6
  9
$SURFTYPE
 70
     6
  9
$SURFU
 70
     6
  9
$SURFV
 70
     6
  9
$UCSBASE
  2

  9
$UCSNAME
  2

  9
$UCSORG
 10
0.0
 20
0.0
 30
0.0
  9
$UCSXDIR
 10
1.0
 20
0.0
 30
0.0
  9
$UCSYDIR
 10
0.0
 20
1.0
 30
0.0
  9
$UCSORTHOREF
  2

  9
$UCSORTHOVIEW
 70
     0
  9
$UCSORGTOP
 10
0.0
 20
0.0
 30
0.0
  9
$UCSORGBOTTOM
 10
0.0
 20
0.0
 30
0.0
  9
$UCSORGLEFT
 10
0.0
 20
0.0
 30
0.0
  9
$UCSORGRIGHT
 10
0.0
 20
0.0
 30
0.0
  9
$UCSORGFRONT
 10
0.0
 20
0.0
 30
0.0
  9
$UCSORGBACK
 10
0.0
 20
0.0
 30
0.0
  9
$PUCSBASE
  2

  9
$PUCSNAME
  2

  9
$PUCSORG
 10
0.0
 20
0.0
 30
0.0
  9
$PUCSXDIR
 10
1.0
 20
0.0
 30
0.0
  9
$PUCSYDIR
 10
0.0
 20
1.0
 30
0.0
  9
$PUCSORTHOREF
  2

  9
$PUCSORTHOVIEW
 70
     0
  9
$PUCSORGTOP
 10
0.0
 20
0.0
 30
0.0
  9
$PUCSORGBOTTOM
 10
0.0
 20
0.0
 30
0.0
  9
$PUCSORGLEFT
 10
0.0
 20
0.0
 30
0.0
  9
$PUCSORGRIGHT
 10
0.0
 20
0.0
 30
0.0
  9
$PUCSORGFRONT
 10
0.0
 20
0.0
 30
0.0
  9
$PUCSORGBACK
 10
0.0
 20
0.0
 30
0.0
  9
$USERI1
 70
     0
  9
$USERI2
 70
     0
  9
$USERI3
 70
     0
  9
$USERI4
 70
     0
  9
$USERI5
 70
     0
  9
$USERR1
 40
0.0
  9
$USERR2
 40
0.0
  9
$USERR3
 40
0.0
  9
$USERR4
 40
0.0
  9
$USERR5
 40
0.0
  9
$WORLDVIEW
 70
     1
  9
$SHADEDGE
 70
     3
  9
$SHADEDIF
 70
    70
  9
$TILEMODE
 70
     1
  9
$MAXACTVP
 70
    64
  9
$PINSBASE
 10
0.0
 20
0.0
 30
0.0
  9
$PLIMCHECK
 70
     0
  9
$PEXTMIN
 10
0.0
 20
0.0
 30
0.0
  9
$PEXTMAX
 10
1155.0
 20
1633.5
 30
0.0
  9
$PLIMMIN
 10
0.0
 20
0.0
  9
$PLIMMAX
 10
1155.0
 20
1633.5
  9
$UNITMODE
 70
     0
  9
$VISRETAIN
 70
     1
  9
$PLINEGEN
 70
     0
  9
$PSLTSCALE
 70
     1
  9
$TREEDEPTH
 70
  3020
  9
$CMLSTYLE
  2
Standard
  9
$CMLJUST
 70
     0
  9
$CMLSCALE
 40
1.0
  9
$PROXYGRAPHICS
 70
     1
  9
$MEASUREMENT
 70
     1
  9
$CELWEIGHT
370
    -1
  9
$ENDCAPS
280
     0
  9
$JOINSTYLE
280
     0
  9
$LWDISPLAY
290
     0
  9
$INSUNITS
 70
     4
  9
$HYPERLINKBASE
  1

  9
$STYLESHEET
  1

  9
$XEDIT
290
     1
  9
$CEPSNTYPE
380
     0
  9
$PSTYLEMODE
290
     1
  9
$FINGERPRINTGUID
  2
{A29C614F-CE96-4827-ABF8-AEC060D7AD92}
  9
$VERSIONGUID
  2
{96FB533B-25E6-164C-8546-3349D2FEF91F}
  9
$EXTNAMES
290
     1
  9
$PSVPSCALE
 40
0.0
  9
$OLESTARTUP
290
     0
  0
ENDSEC
  0
SECTION
  2
CLASSES
  0
CLASS
  1
ACDBDICTIONARYWDFLT
  2
AcDbDictionaryWithDefault
  3
ObjectDBX Classes
 90
        0
280
     0
281
     0
  0
CLASS
  1
MATERIAL
  2
AcDbMaterial
  3
ObjectDBX Classes
 90
     1153
280
     0
281
     0
  0
CLASS
  1
VISUALSTYLE
  2
AcDbVisualStyle
  3
ObjectDBX Classes
 90
     4095
280
     0
281
     0
  0
CLASS
  1
SCALE
  2
AcDbScale
  3
ObjectDBX Classes
 90
     1153
280
     0
281
     0
  0
CLASS
  1
TABLESTYLE
  2
AcDbTableStyle
  3
ObjectDBX Classes
 90
     4095
280
     0
281
     0
  0
CLASS
  1
MLEADERSTYLE
  2
AcDbMLeaderStyle
  3
ACDB_MLEADERSTYLE_CLASS
 90
     4095
280
     0
281
     0
  0
CLASS
  1
DICTIONARYVAR
  2
AcDbDictionaryVar
  3
ObjectDBX Classes
 90
        0
280
     0
281
     0
  0
CLASS
  1
CELLSTYLEMAP
  2
AcDbCellStyleMap
  3
ObjectDBX Classes
 90
     1152
280
     0
281
     0
  0
CLASS
  1
ACDBSECTIONVIEWSTYLE
  2
AcDbSectionViewStyle
  3
ObjectDBX Classes
 90
     1025
280
     0
281
     0
  0
CLASS
  1
ACDBDETAILVIEWSTYLE
  2
AcDbDetailViewStyle
  3
ObjectDBX Classes
 90
     1025
280
     0
281
     0
  0
CLASS
  1
ACAD_EVALUATION_GRAPH
  2
AcDbEvalGraph
  3
ObjectDBX Classes
 90
     1153
280
     0
281
     0
  0
CLASS
  1
ACAECUSTOBJ
  2
AcAeEditorObj
  3
AcAeEditorObj
 90
     1024
280
     0
281
     0
  0
CLASS
  1
ACDB_DYNAMICBLOCKPURGEPREVENTER_VERSION
  2
AcDbDynamicBlockPurgePreventer
  3
ObjectDBX Classes
 90
     1153
280
     0
281
     0
  0
CLASS
  1
ACDBPLACEHOLDER
  2
AcDbPlaceHolder
  3
ObjectDBX Classes
 90
        0
280
     0
281
     0
  0
CLASS
  1
LAYOUT
  2
AcDbLayout
  3
ObjectDBX Classes
 90
        0
280
     0
281
     0
  0
ENDSEC
  0
SECTION
  2
TABLES
  0
TABLE
  2
VPORT
  5
8
330
0
100
AcDbSymbolTable
 70
     1
  0
VPORT
  5
62
330
8
100
AcDbSymbolTableRecord
100
AcDbViewportTableRecord
  2
*Active
 70
     0
 10
0.0
 20
0.0
 11
1.0
 21
1.0
 12
1262.347217177202
 22
751.975098959263
 13
0.0
 23
0.0
 14
1.0
 24
1.0
 15
0.0
 25
0.0
 16
0.0
 26
0.0
 36
1.0
 17
0.0
 27
0.0
 37
0.0
 40
1653.819878512366
 41
2.009483667017913
 42
50.0
 43
0.0
 44
0.0
 50
0.0
 51
0.0
 71
     0
 72
   100
 73
     1
 74
     1
 75
     0
 76
     0
 77
     0
 78
     0
281
     0
 65
     1
110
0.0
120
0.0
130
0.0
111
1.0
121
0.0
131
0.0
112
0.0
122
1.0
132
0.0
 79
     0
146
0.0
1001
ACAD_NAV_VCDISPLAY
1070
     3
  0
ENDTAB
  0
TABLE
  2
LTYPE
  5
5
330
0
100
AcDbSymbolTable
 70
     2
  0
LTYPE
  5
66
330
5
100
AcDbSymbolTableRecord
100
AcDbLinetypeTableRecord
  2
ByBlock
 70
     0
  3

 72
    65
 73
     0
 40
0.0
  0
LTYPE
  5
67
330
5
100
AcDbSymbolTableRecord
100
AcDbLinetypeTableRecord
  2
ByLayer
 70
     0
  3

 72
    65
 73
     0
 40
0.0
  0
LTYPE
  5
68
330
5
100
AcDbSymbolTableRecord
100
AcDbLinetypeTableRecord
  2
Continuous
 70
     0
  3
Solid line
 72
    65
 73
     0
 40
0.0
  0
ENDTAB
  0
TABLE
  2
LAYER
  5
2
330
0
100
AcDbSymbolTable
 70
    10
  0
LAYER
  5
5F
330
2
100
AcDbSymbolTableRecord
100
AcDbLayerTableRecord
  2
0
 70
     0
 62
     7
  6
Continuous
370
    25
390
F
  0
LAYER
  5
95
330
2
100
AcDbSymbolTableRecord
100
AcDbLayerTableRecord
  2
Centerline(ISO)
 70
     0
 62
     7
  6
Continuous
370
    25
390
F
  0
LAYER
  5
9A
330
2
100
AcDbSymbolTableRecord
100
AcDbLayerTableRecord
  2
DV1_EBENE_3
 70
     0
 62
     7
  6
Continuous
370
    25
390
F
  0
LAYER
  5
9C
330
2
100
AcDbSymbolTableRecord
100
AcDbLayerTableRecord
  2
Hatch
 70
     0
 62
     7
  6
Continuous
370
     9
390
F
  0
LAYER
  5
A5
330
2
100
AcDbSymbolTableRecord
100
AcDbLayerTableRecord
  2
MaSichtkante
 70
     0
 62
     7
  6
Continuous
370
    50
390
F
  0
LAYER
  5
A7
330
2
100
AcDbSymbolTableRecord
100
AcDbLayerTableRecord
  2
MaSichtkante dünnFliese
 70
     0
 62
     7
  6
Continuous
370
    30
390
F
  0
LAYER
  5
B6
330
2
100
AcDbSymbolTableRecord
100
AcDbLayerTableRecord
  2
Sketch Geometry(DIN)
 70
     0
 62
     7
  6
Continuous
370
    50
390
F
  0
LAYER
  5
B7
330
2
100
AcDbSymbolTableRecord
100
AcDbLayerTableRecord
  2
Sketch Geometry(ISO)
 70
     0
 62
     7
  6
Continuous
370
    50
390
F
  0
LAYER
  5
C1
330
2
100
AcDbSymbolTableRecord
100
AcDbLayerTableRecord
  2
Symbols(ISO)
 70
     0
 62
     7
  6
Continuous
370
    25
390
F
  0
LAYER
  5
C9
330
2
100
AcDbSymbolTableRecord
100
AcDbLayerTableRecord
  2
Visible Edges(DIN)
 70
     0
 62
     7
  6
Continuous
370
    50
390
F
  0
ENDTAB
  0
TABLE
  2
STYLE
  5
3
330
0
100
AcDbSymbolTable
 70
    24
  0
STYLE
  5
60
330
3
100
AcDbSymbolTableRecord
100
AcDbTextStyleTableRecord
  2
Standard
 70
     0
 40
0.0
 41
1.0
 50
0.0
 71
     0
 42
0.2
  3
monotxt.shx
  4

  0
STYLE
  5
65
330
3
100
AcDbSymbolTableRecord
100
AcDbTextStyleTableRecord
  2
Annotative
 70
     0
 40
0.0
 41
1.0
 50
0.0
 71
     0
 42
0.2
  3
txt
  4

1001
AcadAnnotative
1000
AnnotativeData
1002
{
1070
     1
1070
     1
1002
}
  0
STYLE
  5
D0
330
3
100
AcDbSymbolTableRecord
100
AcDbTextStyleTableRecord
  2
Current-DIN
 70
     0
 40
0.0
 41
1.0
 50
0.0
 71
     0
 42
0.2
  3
TAHOMA.TTF
  4

1001
ACAD
1000
Tahoma
1071
      256
  0
STYLE
  5
D1
330
3
100
AcDbSymbolTableRecord
100
AcDbTextStyleTableRecord
  2
Label Text (DIN)
 70
     0
 40
0.0
 41
1.0
 50
0.0
 71
     0
 42
0.2
  3
isocpeur.ttf
  4

1001
ACAD
1000
ISOCPEUR
1071
      256
  0
STYLE
  5
D2
330
3
100
AcDbSymbolTableRecord
100
AcDbTextStyleTableRecord
  2
Label Text (ISO)
 70
     0
 40
0.0
 41
1.0
 50
0.0
 71
     0
 42
0.2
  3
TAHOMA.TTF
  4

1001
ACAD
1000
Tahoma
1071
      256
  0
STYLE
  5
D3
330
3
100
AcDbSymbolTableRecord
100
AcDbTextStyleTableRecord
  2
Parts-List_2.0mm
 70
     0
 40
0.0
 41
0.899999976158142
 50
0.0
 71
     0
 42
0.2
  3
ARIAL.TTF
  4

1001
ACAD
1000
Arial
1071
      256
  0
STYLE
  5
D4
330
3
100
AcDbSymbolTableRecord
100
AcDbTextStyleTableRecord
  2
Parts-List_2.0mmByLayer
 70
     0
 40
0.0
 41
0.899999976158142
 50
0.0
 71
     0
 42
0.2
  3
ARIAL.TTF
  4

1001
ACAD
1000
Arial
1071
      256
  0
STYLE
  5
D5
330
3
100
AcDbSymbolTableRecord
100
AcDbTextStyleTableRecord
  2
Text__1.3mm
 70
     0
 40
0.0
 41
0.899999976158142
 50
0.0
 71
     0
 42
0.2
  3
ARIAL.TTF
  4

1001
ACAD
1000
Arial
1071
      256
  0
STYLE
  5
D6
330
3
100
AcDbSymbolTableRecord
100
AcDbTextStyleTableRecord
  2
Text__1.5mm
 70
     0
 40
0.0
 41
0.899999976158142
 50
0.0
 71
     0
 42
0.2
  3
ARIAL.TTF
  4

1001
ACAD
1000
Arial
1071
      256
  0
STYLE
  5
D7
330
3
100
AcDbSymbolTableRecord
100
AcDbTextStyleTableRecord
  2
Text__3.5mm
 70
     0
 40
0.0
 41
0.899999976158142
 50
0.0
 71
     0
 42
0.2
  3
ARIAL.TTF
  4

1001
ACAD
1000
Arial
1071
      256
  0
STYLE
  5
D8
330
3
100
AcDbSymbolTableRecord
100
AcDbTextStyleTableRecord
  2
Text__3.5mmBigText
 70
     0
 40
0.0
 41
0.899999976158142
 50
0.0
 71
     0
 42
0.2
  3
ARIAL.TTF
  4

1001
ACAD
1000
Arial
1071
      256
  0
STYLE
  5
D9
330
3
100
AcDbSymbolTableRecord
100
AcDbTextStyleTableRecord
  2
Text__3.5mmByLayer
 70
     0
 40
0.0
 41
0.899999976158142
 50
0.0
 71
     0
 42
0.2
  3
ARIAL.TTF
  4

1001
ACAD
1000
Arial
1071
      256
  0
STYLE
  5
DA
330
3
100
AcDbSymbolTableRecord
100
AcDbTextStyleTableRecord
  2
Text__4.0mm
 70
     0
 40
0.0
 41
0.899999976158142
 50
0.0
 71
     0
 42
0.2
  3
ARIAL.TTF
  4

1001
ACAD
1000
Arial
1071
      256
  0
STYLE
  5
DB
330
3
100
AcDbSymbolTableRecord
100
AcDbTextStyleTableRecord
  2
Text__5.0mm
 70
     0
 40
0.0
 41
0.899999976158142
 50
0.0
 71
     0
 42
0.2
  3
ARIAL.TTF
  4

1001
ACAD
1000
Arial
1071
      256
  0
STYLE
  5
DC
330
3
100
AcDbSymbolTableRecord
100
AcDbTextStyleTableRecord
  2
Text__5.0mmByLayer
 70
     0
 40
0.0
 41
0.899999976158142
 50
0.0
 71
     0
 42
0.2
  3
ARIAL.TTF
  4

1001
ACAD
1000
Arial
1071
      256
  0
STYLE
  5
DD
330
3
100
AcDbSymbolTableRecord
100
AcDbTextStyleTableRecord
  2
Text_2.5mm
 70
     0
 40
0.0
 41
0.899999976158142
 50
0.0
 71
     0
 42
0.2
  3
ARIAL.TTF
  4

1001
ACAD
1000
Arial
1071
      256
  0
STYLE
  5
DE
330
3
100
AcDbSymbolTableRecord
100
AcDbTextStyleTableRecord
  2
Text_3.5mm
 70
     0
 40
0.0
 41
0.899999976158142
 50
0.0
 71
     0
 42
0.2
  3
ARIAL.TTF
  4

1001
ACAD
1000
Arial
1071
      256
  0
STYLE
  5
DF
330
3
100
AcDbSymbolTableRecord
100
AcDbTextStyleTableRecord
  2
Text_5.0mm
 70
     0
 40
0.0
 41
0.899999976158142
 50
0.0
 71
     0
 42
0.2
  3
ARIAL.TTF
  4

1001
ACAD
1000
Arial
1071
      256
  0
STYLE
  5
E0
330
3
100
AcDbSymbolTableRecord
100
AcDbTextStyleTableRecord
  2
Text_5.0mmByLayer
 70
     0
 40
0.0
 41
0.899999976158142
 50
0.0
 71
     0
 42
0.2
  3
ARIAL.TTF
  4

1001
ACAD
1000
Arial
1071
      256
  0
STYLE
  5
105
330
3
100
AcDbSymbolTableRecord
100
AcDbTextStyleTableRecord
  2
Text Style49
 70
     0
 40
0.0
 41
0.899999976158142
 50
0.0
 71
     0
 42
0.2
  3
ARIAL.TTF
  4

1001
ACAD
1000
Arial
1071
      256
  0
STYLE
  5
2D4
330
3
100
AcDbSymbolTableRecord
100
AcDbTextStyleTableRecord
  2
Text Style20
 70
     0
 40
0.0
 41
1.0
 50
0.0
 71
     0
 42
0.2
  3
ARIAL.TTF
  4

1001
ACAD
1000
Arial
1071
      256
  0
STYLE
  5
2D6
330
3
100
AcDbSymbolTableRecord
100
AcDbTextStyleTableRecord
  2
Text Style9
 70
     0
 40
0.0
 41
1.0
 50
0.0
 71
     0
 42
0.2
  3
ARIAL.TTF
  4

1001
ACAD
1000
Arial
1071
      256
  0
STYLE
  5
2D9
330
3
100
AcDbSymbolTableRecord
100
AcDbTextStyleTableRecord
  2
Text Style38
 70
     0
 40
0.0
 41
1.0
 50
0.0
 71
     0
 42
0.2
  3
ARIAL.TTF
  4

1001
ACAD
1000
Arial
1071
      256
  0
STYLE
  5
2DC
330
3
100
AcDbSymbolTableRecord
100
AcDbTextStyleTableRecord
  2
Text Style40
 70
     0
 40
0.0
 41
1.0
 50
0.0
 71
     0
 42
0.2
  3
ARIAL.TTF
  4

1001
ACAD
1000
Arial
1071
      256
  0
ENDTAB
  0
TABLE
  2
VIEW
  5
6
330
0
100
AcDbSymbolTable
 70
     0
  0
ENDTAB
  0
TABLE
  2
UCS
  5
7
330
0
100
AcDbSymbolTable
 70
     0
  0
ENDTAB
  0
TABLE
  2
APPID
  5
9
330
0
100
AcDbSymbolTable
 70
     9
  0
APPID
  5
61
330
9
100
AcDbSymbolTableRecord
100
AcDbRegAppTableRecord
  2
ACAD
 70
     0
  0
APPID
  5
69
330
9
100
AcDbSymbolTableRecord
100
AcDbRegAppTableRecord
  2
AcadAnnotative
 70
     0
  0
APPID
  5
109
330
9
100
AcDbSymbolTableRecord
100
AcDbRegAppTableRecord
  2
AcadAnnoPO
 70
     0
  0
APPID
  5
4CC
330
9
100
AcDbSymbolTableRecord
100
AcDbRegAppTableRecord
  2
ACAD_MLEADERVER
 70
     0
  0
APPID
  5
4E2
330
9
100
AcDbSymbolTableRecord
100
AcDbRegAppTableRecord
  2
ACAD_EXEMPT_FROM_CAD_STANDARDS
 70
     0
  0
APPID
  5
5FF
330
9
100
AcDbSymbolTableRecord
100
AcDbRegAppTableRecord
  2
ACAUTHENVIRON
 70
     0
  0
APPID
  5
603
330
9
100
AcDbSymbolTableRecord
100
AcDbRegAppTableRecord
  2
AcDbDynamicBlockTrueName
 70
     0
  0
APPID
  5
604
330
9
100
AcDbSymbolTableRecord
100
AcDbRegAppTableRecord
  2
AcDbDynamicBlockGUID
 70
     0
  0
APPID
  5
60D
330
9
100
AcDbSymbolTableRecord
100
AcDbRegAppTableRecord
  2
ACAD_NAV_VCDISPLAY
 70
     0
  0
ENDTAB
  0
TABLE
  2
DIMSTYLE
  5
A
330
0
100
AcDbSymbolTable
 70
    17
100
AcDbDimStyleTable
 71
     0
  0
DIMSTYLE
105
63
330
A
100
AcDbSymbolTableRecord
100
AcDbDimStyleTableRecord
  2
Standard
 70
     0
340
60
  0
DIMSTYLE
105
64
330
A
100
AcDbSymbolTableRecord
100
AcDbDimStyleTableRecord
  2
Annotative
 70
     0
340
60
1001
AcadAnnotative
1000
AnnotativeData
1002
{
1070
     1
1070
     1
1002
}
  0
DIMSTYLE
105
E1
330
A
100
AcDbSymbolTableRecord
100
AcDbDimStyleTableRecord
  2
KS-STANDARD
 70
     0
 40
5.5
 41
2.5
 42
0.0
 43
12.0
 44
3.174999999999998
 45
0.00000001
 46
10.0
 73
     0
 74
     0
 77
     1
 78
     8
 79
     2
140
3.5
143
0.03937
146
0.7142857142857145
147
0.8
171
     3
172
     1
176
     7
177
     7
178
     7
271
     1
274
     3
278
    44
284
     8
286
     8
340
DE
371
    25
372
    25
  0
DIMSTYLE
105
E2
330
A
100
AcDbSymbolTableRecord
100
AcDbDimStyleTableRecord
  2
KS-STANDARD$7
 70
     0
 40
5.5
 41
2.5
 42
0.0
 43
12.0
 44
3.174999999999998
 45
0.00000001
 46
10.0
 73
     0
 74
     0
 77
     1
 78
     8
 79
     2
140
3.5
143
0.03937
146
0.7142857142857145
147
0.8
171
     3
172
     1
176
     7
177
     7
178
     7
271
     1
274
     3
278
    44
284
     8
286
     8
340
DE
371
    25
372
    25
  0
DIMSTYLE
105
E3
330
A
100
AcDbSymbolTableRecord
100
AcDbDimStyleTableRecord
  2
KS-STANDARDBigText
 70
     0
 40
5.5
 41
5.0
 42
0.0
 43
12.0
 44
3.174999999999998
 45
0.00000001
 46
10.0
 73
     0
 74
     0
 77
     1
 78
     8
 79
     2
140
5.25
143
0.03937
146
0.4761904761904762
147
0.8
171
     3
172
     1
176
     7
177
     7
178
     7
271
     1
274
     3
278
    44
284
     8
286
     8
340
D8
371
    25
372
    25
  0
DIMSTYLE
105
E4
330
A
100
AcDbSymbolTableRecord
100
AcDbDimStyleTableRecord
  2
KS-STANDARDBigText$7
 70
     0
 40
5.5
 41
5.0
 42
0.0
 43
12.0
 44
3.174999999999998
 45
0.00000001
 46
10.0
 73
     0
 74
     0
 77
     1
 78
     8
 79
     2
140
5.25
143
0.03937
146
0.4761904761904762
147
0.8
171
     3
172
     1
176
     7
177
     7
178
     7
271
     1
274
     3
278
    44
284
     8
286
     8
340
D8
371
    25
372
    25
  0
DIMSTYLE
105
E5
330
A
100
AcDbSymbolTableRecord
100
AcDbDimStyleTableRecord
  2
Masszeichnungen
 70
     0
 40
5.5
 41
4.0
 42
2.0
 43
24.0
 44
2.0
 45
0.00000001
 46
20.0
 78
     8
 79
     2
140
4.0
143
0.03937
146
0.625
147
1.0
171
     3
176
     7
177
     7
178
     7
271
     1
274
     3
278
    44
284
     8
286
     8
340
DA
371
    25
372
    25
  0
DIMSTYLE
105
E6
330
A
100
AcDbSymbolTableRecord
100
AcDbDimStyleTableRecord
  2
Masszeichnungen$7
 70
     0
 40
5.5
 41
5.0
 42
2.0
 43
24.0
 44
2.0
 45
0.00000001
 46
20.0
 78
     8
 79
     2
140
4.0
143
0.03937
146
0.625
147
1.0
171
     3
176
     7
177
     7
178
     7
271
     1
274
     3
278
    44
284
     8
286
     8
340
DA
371
    25
372
    25
  0
DIMSTYLE
105
F1
330
A
100
AcDbSymbolTableRecord
100
AcDbDimStyleTableRecord
  2
Leader-Datum(DIN)
 70
     0
 40
5.5
 41
2.5
340
60
342
F2
  0
DIMSTYLE
105
F9
330
A
100
AcDbSymbolTableRecord
100
AcDbDimStyleTableRecord
  2
Leader-Datum(ISO)
 70
     0
 40
5.5
 41
2.5
340
60
342
F2
  0
DIMSTYLE
105
FA
330
A
100
AcDbSymbolTableRecord
100
AcDbDimStyleTableRecord
  2
Leader-Dot(DIN)
 70
     0
 40
5.5
 41
2.5
340
60
342
F2
  0
DIMSTYLE
105
FB
330
A
100
AcDbSymbolTableRecord
100
AcDbDimStyleTableRecord
  2
Leader-Dot(ISO)
 70
     0
 40
5.5
 41
2.5
340
60
342
F2
  0
DIMSTYLE
105
FC
330
A
100
AcDbSymbolTableRecord
100
AcDbDimStyleTableRecord
  2
Leader-Large(DIN)
 70
     0
 40
5.5
 41
5.0
340
60
342
F2
  0
DIMSTYLE
105
FD
330
A
100
AcDbSymbolTableRecord
100
AcDbDimStyleTableRecord
  2
Leader-OriginIndicator(DIN)
 70
     0
 40
5.5
 41
2.5
340
60
342
F2
  0
DIMSTYLE
105
FE
330
A
100
AcDbSymbolTableRecord
100
AcDbDimStyleTableRecord
  2
Leader-OriginIndicator(ISO)
 70
     0
 40
5.5
 41
2.5
340
60
342
F2
  0
DIMSTYLE
105
FF
330
A
100
AcDbSymbolTableRecord
100
AcDbDimStyleTableRecord
  2
Leader(DIN)
 70
     0
 40
5.5
 41
2.5
340
60
342
F2
  0
DIMSTYLE
105
100
330
A
100
AcDbSymbolTableRecord
100
AcDbDimStyleTableRecord
  2
Leader(ISO)
 70
     0
 40
5.5
 41
2.5
340
60
342
F2
  0
ENDTAB
  0
TABLE
  2
BLOCK_RECORD
  5
1
330
0
100
AcDbSymbolTable
 70
    14
  0
BLOCK_RECORD
  5
77
330
1
100
AcDbSymbolTableRecord
100
AcDbBlockTableRecord
  2
*Model_Space
340
7A
  0
BLOCK_RECORD
  5
73
330
1
100
AcDbSymbolTableRecord
100
AcDbBlockTableRecord
  2
*Paper_Space
340
76
  0
BLOCK_RECORD
  5
7B
330
1
100
AcDbSymbolTableRecord
100
AcDbBlockTableRecord
  2
*Paper_Space0
340
7E
  0
BLOCK_RECORD
  5
E7
330
1
100
AcDbSymbolTableRecord
100
AcDbBlockTableRecord
  2
DatumFilled45
340
0
  0
BLOCK_RECORD
  5
F2
330
1
100
AcDbSymbolTableRecord
100
AcDbBlockTableRecord
  2
_Closed
340
0
  0
BLOCK_RECORD
  5
101
330
1
100
AcDbSymbolTableRecord
100
AcDbBlockTableRecord
  2
Index
340
0
  0
BLOCK_RECORD
  5
10A
330
1
100
AcDbSymbolTableRecord
100
AcDbBlockTableRecord
  2
AIR
340
0
  0
BLOCK_RECORD
  5
117
330
1
100
AcDbSymbolTableRecord
100
AcDbBlockTableRecord
  2
Zertifizierungszeichnung
340
0
  0
BLOCK_RECORD
  5
11F
330
1
100
AcDbSymbolTableRecord
100
AcDbBlockTableRecord
  2
Pfeil 1_1
340
0
  0
BLOCK_RECORD
  5
131
330
1
100
AcDbSymbolTableRecord
100
AcDbBlockTableRecord
  2
TWK 1_1
340
0
  0
BLOCK_RECORD
  5
13F
330
1
100
AcDbSymbolTableRecord
100
AcDbBlockTableRecord
  2
TWW 1_1
340
0
  0
BLOCK_RECORD
  5
14F
330
1
100
AcDbSymbolTableRecord
100
AcDbBlockTableRecord
  2
Rollstuhl
340
0
  0
BLOCK_RECORD
  5
1AF
330
1
100
AcDbSymbolTableRecord
100
AcDbBlockTableRecord
  2
Wassermengenreg. f. Marketing
340
0
  0
BLOCK_RECORD
  5
1DF
102
{ACAD_XDICTIONARY
360
600
102
}
330
1
100
AcDbSymbolTableRecord
100
AcDbBlockTableRecord
  2
Title Blocks WS-Marketing-FUN
340
0
102
{BLKREFS
331
2EB
102
}
1001
AcDbDynamicBlockGUID
1000
{ECCEFEAC-B9A5-4D48-BE5A-ABF73EAB4B7D}
  0
BLOCK_RECORD
  5
300
330
1
100
AcDbSymbolTableRecord
100
AcDbBlockTableRecord
  2
Borders Planung Border
340
0
102
{BLKREFS
331
307
102
}
  0
ENDTAB
  0
ENDSEC
  0
SECTION
  2
BLOCKS
  0
BLOCK
  5
78
330
77
100
AcDbEntity
  8
0
100
AcDbBlockBegin
  2
*Model_Space
 70
     0
 10
0.0
 20
0.0
 30
0.0
  3
*Model_Space
  1

  0
ENDBLK
  5
79
330
77
100
AcDbEntity
  8
0
100
AcDbBlockEnd
  0
BLOCK
  5
74
330
73
100
AcDbEntity
 67
     1
  8
0
100
AcDbBlockBegin
  2
*Paper_Space
 70
     0
 10
0.0
 20
0.0
 30
0.0
  3
*Paper_Space
  1

  0
ENDBLK
  5
75
330
73
100
AcDbEntity
 67
     1
  8
0
100
AcDbBlockEnd
  0
BLOCK
  5
7C
330
7B
100
AcDbEntity
 67
     1
  8
0
100
AcDbBlockBegin
  2
*Paper_Space0
 70
     0
 10
0.0
 20
0.0
 30
0.0
  3
*Paper_Space0
  1

  0
ENDBLK
  5
7D
330
7B
100
AcDbEntity
 67
     1
  8
0
100
AcDbBlockEnd
  0
BLOCK
  5
E8
330
E7
100
AcDbEntity
  8
0
100
AcDbBlockBegin
  2
DatumFilled45
 70
     0
 10
0.0
 20
0.0
 30
0.0
  3
DatumFilled45
  1

  0
POLYLINE
  5
EA
330
E7
100
AcDbEntity
  8
0
 62
     0
100
AcDb2dPolyline
 66
     1
 10
0.0
 20
0.0
 30
0.0
 70
   128
  0
VERTEX
  5
EB
330
EA
100
AcDbEntity
  8
0
 62
     0
100
AcDbVertex
100
AcDb2dVertex
 10
0.0
 20
1.0
 30
0.0
  0
VERTEX
  5
EC
330
EA
100
AcDbEntity
  8
0
 62
     0
100
AcDbVertex
100
AcDb2dVertex
 10
0.0
 20
-1.0
 30
0.0
  0
VERTEX
  5
EE
330
EA
100
AcDbEntity
  8
0
 62
     0
100
AcDbVertex
100
AcDb2dVertex
 10
-1.0
 20
0.0
 30
0.0
  0
VERTEX
  5
EF
330
EA
100
AcDbEntity
  8
0
 62
     0
100
AcDbVertex
100
AcDb2dVertex
 10
0.0
 20
1.0
 30
0.0
  0
SEQEND
  5
ED
330
EA
100
AcDbEntity
  8
0
 62
     0
  0
SOLID
  5
F0
330
E7
100
AcDbEntity
  8
0
 62
     0
100
AcDbTrace
 10
0.0
 20
1.0
 30
0.0
 11
0.0
 21
-1.0
 31
0.0
 12
-1.0
 22
0.0
 32
0.0
 13
0.0
 23
1.0
 33
0.0
  0
ENDBLK
  5
E9
330
E7
100
AcDbEntity
  8
0
100
AcDbBlockEnd
  0
BLOCK
  5
F7
330
F2
100
AcDbEntity
  8
0
100
AcDbBlockBegin
  2
_Closed
 70
     0
 10
0.0
 20
0.0
 30
0.0
  3
_Closed
  1

  0
LINE
  5
F3
330
F2
100
AcDbEntity
  8
0
  6
ByBlock
 62
     0
370
    -2
100
AcDbLine
 10
-1.0
 20
0.1666666666666666
 30
0.0
 11
0.0
 21
0.0
 31
0.0
  0
LINE
  5
F4
330
F2
100
AcDbEntity
  8
0
  6
ByBlock
 62
     0
370
    -2
100
AcDbLine
 10
0.0
 20
0.0
 30
0.0
 11
-1.0
 21
-0.1666666666666666
 31
0.0
  0
LINE
  5
F5
330
F2
100
AcDbEntity
  8
0
  6
ByBlock
 62
     0
370
    -2
100
AcDbLine
 10
-1.0
 20
0.1666666666666666
 30
0.0
 11
-1.0
 21
-0.1666666666666666
 31
0.0
  0
LINE
  5
F6
330
F2
100
AcDbEntity
  8
0
  6
ByBlock
 62
     0
370
    -2
100
AcDbLine
 10
0.0
 20
0.0
 30
0.0
 11
-1.0
 21
0.0
 31
0.0
  0
ENDBLK
  5
F8
330
F2
100
AcDbEntity
  8
0
100
AcDbBlockEnd
  0
BLOCK
  5
102
330
101
100
AcDbEntity
  8
0
100
AcDbBlockBegin
  2
Index
 70
     2
 10
0.0
 20
0.0
 30
0.0
  3
Index
  1

  0
CIRCLE
  5
104
330
101
100
AcDbEntity
  8
Sketch Geometry(ISO)
  6
Continuous
 62
     7
370
    25
100
AcDbCircle
 10
0.0
 20
0.0
 30
0.0
 40
2.5
  0
ATTDEF
  5
106
102
{ACAD_XDICTIONARY
360
42B
102
}
330
101
100
AcDbEntity
  8
Symbols(ISO)
 62
     7
100
AcDbText
 10
-0.0000000000000001
 20
-1.25
 30
0.0
 40
2.5
  1

 41
0.899999976158142
  7
Text Style49
 72
     1
 11
0.0
 21
0.0
 31
0.0
100
AcDbAttributeDefinition
  3
<Enter Prompt for Field>
  2
<Enter_Prompt_for_Field>
 70
     0
 74
     2
  0
ENDBLK
  5
103
330
101
100
AcDbEntity
  8
0
100
AcDbBlockEnd
  0
BLOCK
  5
10B
330
10A
100
AcDbEntity
  8
0
100
AcDbBlockBegin
  2
AIR
 70
     0
 10
0.0
 20
0.0
 30
0.0
  3
AIR
  1

  0
LINE
  5
10D
330
10A
100
AcDbEntity
  8
Sketch Geometry(ISO)
 62
     7
370
    70
100
AcDbLine
 10
-7.0
 20
6.000000000000048
 30
0.0
 11
6.999999999999992
 21
6.000000000000013
 31
0.0
  0
LINE
  5
10E
330
10A
100
AcDbEntity
  8
Sketch Geometry(ISO)
 62
     7
370
    70
100
AcDbLine
 10
10.00000000000001
 20
3.000000000000006
 30
0.0
 11
10.00000000000001
 21
-2.999999999999971
 31
0.0
  0
LINE
  5
10F
330
10A
100
AcDbEntity
  8
Sketch Geometry(ISO)
 62
     7
370
    70
100
AcDbLine
 10
6.999999999999992
 20
-5.999999999999976
 30
0.0
 11
-7.0
 21
-6.000000000000013
 31
0.0
  0
LINE
  5
110
330
10A
100
AcDbEntity
  8
Sketch Geometry(ISO)
 62
     7
370
    70
100
AcDbLine
 10
-10.00000000000001
 20
-2.999999999999971
 30
0.0
 11
-10.0
 21
3.000000000000006
 31
0.0
  0
ARC
  5
111
330
10A
100
AcDbEntity
  8
Sketch Geometry(ISO)
 62
     7
370
    70
100
AcDbCircle
 10
6.999999999999992
 20
3.000000000000006
 30
0.0
 40
3.0
100
AcDbArc
 50
0.0
 51
90.0
  0
ARC
  5
112
330
10A
100
AcDbEntity
  8
Sketch Geometry(ISO)
 62
     7
370
    70
100
AcDbCircle
 10
6.999999999999992
 20
-2.999999999999971
 30
0.0
 40
3.0
100
AcDbArc
 50
270.0
 51
0.0
  0
ARC
  5
113
330
10A
100
AcDbEntity
  8
Sketch Geometry(ISO)
 62
     7
370
    70
100
AcDbCircle
 10
-7.0
 20
-2.999999999999971
 30
0.0
 40
3.0
100
AcDbArc
 50
180.0
 51
270.0
  0
ARC
  5
114
330
10A
100
AcDbEntity
  8
Sketch Geometry(ISO)
 62
     7
370
    70
100
AcDbCircle
 10
-7.0
 20
3.000000000000006
 30
0.0
 40
3.0
100
AcDbArc
 50
90.0
 51
180.0
  0
MTEXT
  5
115
330
10A
100
AcDbEntity
  8
Symbols(ISO)
 62
     7
100
AcDbMText
 10
0.0
 20
0.0
 30
0.0
 40
6.99999988079071
 41
16.10195276430038
 71
     5
 72
     1
  1
\fArial|b0|i0;\H7.0000;AIR
  7
Text__3.5mm
 73
     1
 44
1.0
1001
ACAD
1000
MTEXTBEGIN
1070
    73
1070
     1
1070
    44
1040
1.0
1070
    74
1070
     0
1000
MTEXTEND
  0
ENDBLK
  5
10C
330
10A
100
AcDbEntity
  8
0
100
AcDbBlockEnd
  0
BLOCK
  5
118
330
117
100
AcDbEntity
  8
0
100
AcDbBlockBegin
  2
Zertifizierungszeichnung
 70
     0
 10
0.0
 20
0.0
 30
0.0
  3
Zertifizierungszeichnung
  1

  0
LINE
  5
11A
330
117
100
AcDbEntity
  8
Sketch Geometry(ISO)
100
AcDbLine
 10
-36.13491376407675
 20
6.581399957023617
 30
0.0
 11
36.13491376407676
 21
6.581399957023617
 31
0.0
  0
LINE
  5
11B
330
117
100
AcDbEntity
  8
Sketch Geometry(ISO)
100
AcDbLine
 10
36.13491376407676
 20
6.581399957023617
 30
0.0
 11
36.13491376407676
 21
-6.581399957023633
 31
0.0
  0
LINE
  5
11C
330
117
100
AcDbEntity
  8
Sketch Geometry(ISO)
100
AcDbLine
 10
36.13491376407676
 20
-6.581399957023633
 30
0.0
 11
-36.13491376407675
 21
-6.581399957023633
 31
0.0
  0
LINE
  5
11D
330
117
100
AcDbEntity
  8
Sketch Geometry(ISO)
100
AcDbLine
 10
-36.13491376407675
 20
-6.581399957023633
 30
0.0
 11
-36.13491376407675
 21
6.581399957023617
 31
0.0
  0
MTEXT
  5
11E
330
117
100
AcDbEntity
  8
Symbols(ISO)
 62
     7
100
AcDbMText
 10
-34.13997890763035
 20
-0.338671892615654
 30
0.0
 40
3.000000119209288
 41
0.0
 71
     4
 72
     1
  1
\fTahoma|b0|i0;\H3.0000;Drawing for certification purposes only!\PDrawing not for manufacturing purposes!
  7
Text__3.5mm
 73
     2
 44
0.9442214369773862
1001
ACAD
1000
MTEXTBEGIN
1070
    73
1070
     2
1070
    44
1040
0.9442214369773862
1070
    74
1070
     0
1000
MTEXTEND
  0
ENDBLK
  5
119
330
117
100
AcDbEntity
  8
0
100
AcDbBlockEnd
  0
BLOCK
  5
120
330
11F
100
AcDbEntity
  8
0
100
AcDbBlockBegin
  2
Pfeil 1_1
 70
     0
 10
0.0
 20
0.0
 30
0.0
  3
Pfeil 1_1
  1

  0
HATCH
  5
129
330
11F
100
AcDbEntity
  8
Hatch
100
AcDbHatch
 10
0.0
 20
0.0
 30
0.0
210
0.0
220
0.0
230
1.0
  2
ANSI31
 70
     0
 71
     0
 91
        1
 92
        1
 93
        7
 72
     1
 10
-2.327499999999814
 20
0.6650000000002621
 11
0.0
 21
-2.659999999999874
 72
     1
 10
0.0
 20
-2.659999999999874
 11
2.327499999999833
 21
0.6650000000002621
 72
     1
 10
2.327499999999833
 20
0.6650000000002621
 11
0.6649999999998713
 21
0.6650000000002621
 72
     1
 10
0.6649999999998713
 20
0.6650000000002621
 11
0.6649999999998713
 21
2.659999999999858
 72
     1
 10
0.6649999999998713
 20
2.659999999999858
 11
-0.6649999999999779
 21
2.659999999999858
 72
     1
 10
-0.664999999999978
 20
2.659999999999858
 11
-0.664999999999978
 21
0.6650000000002621
 72
     1
 10
-0.664999999999978
 20
0.6650000000002621
 11
-2.327499999999814
 21
0.6650000000002621
 97
        0
 75
     0
 76
     1
 52
0.0
 41
0.0254
 77
     0
 78
     1
 53
45.0
 43
0.0
 44
0.0
 45
-0.0022450640302673
 46
0.0022450640302673
 79
     0
 98
        1
 10
0.0
 20
0.0
  0
LINE
  5
12A
330
11F
100
AcDbEntity
  8
MaSichtkante dünnFliese
370
     5
100
AcDbLine
 10
-2.327499999999814
 20
0.6650000000002621
 30
0.0
 11
-0.664999999999978
 21
0.6650000000002621
 31
0.0
  0
LINE
  5
12B
330
11F
100
AcDbEntity
  8
MaSichtkante dünnFliese
370
     5
100
AcDbLine
 10
0.0
 20
-2.659999999999874
 30
0.0
 11
-2.327499999999814
 21
0.6650000000002621
 31
0.0
  0
LINE
  5
12C
330
11F
100
AcDbEntity
  8
MaSichtkante dünnFliese
370
     5
100
AcDbLine
 10
-0.664999999999978
 20
0.6650000000002621
 30
0.0
 11
-0.664999999999978
 21
2.659999999999858
 31
0.0
  0
LINE
  5
12D
330
11F
100
AcDbEntity
  8
MaSichtkante dünnFliese
370
     5
100
AcDbLine
 10
-0.664999999999978
 20
2.659999999999858
 30
0.0
 11
0.6649999999998713
 21
2.659999999999858
 31
0.0
  0
LINE
  5
12E
330
11F
100
AcDbEntity
  8
MaSichtkante dünnFliese
370
     5
100
AcDbLine
 10
0.6649999999998713
 20
2.659999999999858
 30
0.0
 11
0.6649999999998713
 21
0.6650000000002621
 31
0.0
  0
LINE
  5
12F
330
11F
100
AcDbEntity
  8
MaSichtkante dünnFliese
370
     5
100
AcDbLine
 10
2.327499999999833
 20
0.6650000000002621
 30
0.0
 11
0.0
 21
-2.659999999999874
 31
0.0
  0
LINE
  5
130
330
11F
100
AcDbEntity
  8
MaSichtkante dünnFliese
370
     5
100
AcDbLine
 10
0.6649999999998713
 20
0.6650000000002621
 30
0.0
 11
2.327499999999833
 21
0.6650000000002621
 31
0.0
  0
ENDBLK
  5
121
330
11F
100
AcDbEntity
  8
0
100
AcDbBlockEnd
  0
BLOCK
  5
132
330
131
100
AcDbEntity
  8
0
100
AcDbBlockBegin
  2
TWK 1_1
 70
     0
 10
0.0
 20
0.0
 30
0.0
  3
TWK 1_1
  1

  0
HATCH
  5
136
330
131
100
AcDbEntity
  8
Hatch
100
AcDbHatch
 10
0.0
 20
0.0
 30
0.0
210
0.0
220
0.0
230
1.0
  2
ANSI31
 70
     0
 71
     0
 91
        1
 92
        1
 93
        2
 72
     2
 10
0.0
 20
-3.324999949999316
 40
2.659999999999999
 50
148.4507563219768
 51
391.549243678031
 73
     1
 72
     1
 10
2.266827476457925
 20
-1.933204996720494
 11
-2.2668274764586
 21
-1.933204996720494
 97
        0
 75
     0
 76
     1
 52
0.0
 41
0.0254
 77
     0
 78
     1
 53
45.0
 43
0.0
 44
0.0
 45
-0.0022450640302673
 46
0.0022450640302673
 79
     0
 98
        1
 10
0.0
 20
0.0
  0
LINE
  5
137
330
131
100
AcDbEntity
  8
MaSichtkante dünnFliese
100
AcDbLine
 10
-2.266827476458601
 20
-1.933204996720494
 30
0.0
 11
2.266827476457925
 21
-1.933204996720494
 31
0.0
  0
ARC
  5
138
330
131
100
AcDbEntity
  8
MaSichtkante dünnFliese
100
AcDbCircle
 10
0.0
 20
-3.324999949999316
 30
0.0
 40
2.66
100
AcDbArc
 50
112.0243128370458
 51
67.97568716296805
  0
LINE
  5
139
330
131
100
AcDbEntity
  8
MaSichtkante dünnFliese
100
AcDbLine
 10
-0.9975000000001619
 20
-0.8591139530400582
 30
0.0
 11
-0.9975000000001619
 21
5.985000049999325
 31
0.0
  0
LINE
  5
13A
330
131
100
AcDbEntity
  8
MaSichtkante dünnFliese
100
AcDbLine
 10
0.9974999999994691
 20
5.985000049999325
 30
0.0
 11
0.9974999999994691
 21
-0.8591139530400582
 31
0.0
  0
LINE
  5
13B
330
131
100
AcDbEntity
  8
MaSichtkante dünnFliese
100
AcDbLine
 10
0.9974999999994873
 20
2.827327836441567
 30
0.0
 11
2.194499999999254
 21
2.827327836441567
 31
0.0
  0
LINE
  5
13C
330
131
100
AcDbEntity
  8
MaSichtkante dünnFliese
100
AcDbLine
 10
-0.9975000000001619
 20
5.985000049999325
 30
0.0
 11
0.9974999999994691
 21
5.985000049999325
 31
0.0
  0
LINE
  5
13D
330
131
100
AcDbEntity
  8
MaSichtkante dünnFliese
100
AcDbLine
 10
0.9974999999994691
 20
4.932451836441167
 30
0.0
 11
2.194499999999236
 21
4.932451836441167
 31
0.0
  0
LINE
  5
13E
330
131
100
AcDbEntity
  8
MaSichtkante dünnFliese
100
AcDbLine
 10
0.9974999999994691
 20
0.7222038364418637
 30
0.0
 11
2.194499999999236
 21
0.7222038364418637
 31
0.0
  0
ENDBLK
  5
133
330
131
100
AcDbEntity
  8
0
100
AcDbBlockEnd
  0
BLOCK
  5
140
330
13F
100
AcDbEntity
  8
0
100
AcDbBlockBegin
  2
TWW 1_1
 70
     0
 10
0.0
 20
0.0
 30
0.0
  3
TWW 1_1
  1

  0
HATCH
  5
146
330
13F
100
AcDbEntity
  8
Hatch
100
AcDbHatch
 10
0.0
 20
0.0
 30
0.0
210
0.0
220
0.0
230
1.0
  2
ANSI31
 70
     0
 71
     0
 91
        1
 92
        1
 93
        4
 72
     1
 10
0.9974999999997892
 20
4.796219377687264
 11
-0.9975000000000909
 21
4.796219377687264
 72
     1
 10
-0.9975000000000909
 20
4.796219377687264
 11
-0.9975000000000909
 21
-0.8591139530402891
 72
     2
 10
0.0
 20
-3.324999950000062
 40
2.659999999999827
 50
112.0243128370404
 51
427.9756871629659
 73
     1
 72
     1
 10
0.9974999999997892
 20
-0.8591139530402891
 11
0.9974999999997892
 21
4.796219377687264
 97
        0
 75
     0
 76
     1
 52
0.0
 41
0.0254
 77
     0
 78
     1
 53
45.0
 43
0.0
 44
0.0
 45
-0.0022450640302673
 46
0.0022450640302673
 79
     0
 98
        1
 10
0.0
 20
0.0
  0
LINE
  5
147
330
13F
100
AcDbEntity
  8
MaSichtkante dünnFliese
370
    18
100
AcDbLine
 10
0.9974999999997892
 20
4.893283779707643
 30
0.0
 11
2.194499999999734
 21
4.893283779707643
 31
0.0
  0
LINE
  5
148
330
13F
100
AcDbEntity
  8
MaSichtkante dünnFliese
370
    18
100
AcDbLine
 10
0.9974999999997892
 20
0.8330332774134241
 30
0.0
 11
2.194499999999734
 21
0.8330332774134241
 31
0.0
  0
LINE
  5
149
330
13F
100
AcDbEntity
  8
MaSichtkante dünnFliese
370
    18
100
AcDbLine
 10
0.9974999999997892
 20
2.863158528560525
 30
0.0
 11
2.194499999999734
 21
2.863158528560525
 31
0.0
  0
LINE
  5
14A
330
13F
100
AcDbEntity
  8
Sketch Geometry(DIN)
370
    18
100
AcDbLine
 10
0.9974999999997892
 20
5.98500004999991
 30
0.0
 11
0.9974999999997892
 21
-0.8591139530402891
 31
0.0
  0
LINE
  5
14B
330
13F
100
AcDbEntity
  8
MaSichtkante dünnFliese
100
AcDbLine
 10
-0.9975000000000909
 20
5.98500004999991
 30
0.0
 11
0.9974999999997892
 21
5.98500004999991
 31
0.0
  0
LINE
  5
14C
330
13F
100
AcDbEntity
  8
MaSichtkante dünnFliese
100
AcDbLine
 10
-0.9975000000000909
 20
-0.8591139530402891
 30
0.0
 11
-0.9975000000000909
 21
5.98500004999991
 31
0.0
  0
LINE
  5
14D
330
13F
100
AcDbEntity
  8
MaSichtkante dünnFliese
370
    18
100
AcDbLine
 10
-0.9975000000000909
 20
4.796219377687264
 30
0.0
 11
0.9974999999997892
 21
4.796219377687264
 31
0.0
  0
ARC
  5
14E
330
13F
100
AcDbEntity
  8
MaSichtkante dünnFliese
370
    18
100
AcDbCircle
 10
0.0
 20
-3.324999950000062
 30
0.0
 40
2.659999999999829
100
AcDbArc
 50
112.0243128370402
 51
67.9756871629658
  0
ENDBLK
  5
141
330
13F
100
AcDbEntity
  8
0
100
AcDbBlockEnd
  0
BLOCK
  5
150
330
14F
100
AcDbEntity
  8
0
100
AcDbBlockBegin
  2
Rollstuhl
 70
     0
 10
0.0
 20
0.0
 30
0.0
  3
Rollstuhl
  1

  0
HATCH
  5
153
330
14F
100
AcDbEntity
  8
Hatch
100
AcDbHatch
 10
0.0
 20
0.0
 30
0.0
210
0.0
220
0.0
230
1.0
  2
SOLID
 70
     1
 71
     0
 91
        1
 92
        1
 93
        1
 72
     2
 10
-0.7011489999958087
 20
2.009050049999991
 40
0.5694427999999987
 50
0.0
 51
360.0
 73
     1
 97
        0
 75
     0
 76
     1
 98
        1
 10
0.0
 20
0.0
  0
HATCH
  5
155
330
14F
100
AcDbEntity
  8
Hatch
100
AcDbHatch
 10
0.0
 20
0.0
 30
0.0
210
0.0
220
0.0
230
1.0
  2
SOLID
 70
     1
 71
     0
 91
        1
 92
        1
 93
        1
 72
     2
 10
-1.288215599995812
 20
0.6949340499999935
 40
0.1820490773809734
 50
0.0
 51
360.0
 73
     1
 97
        0
 75
     0
 76
     1
 98
        1
 10
0.0
 20
0.0
  0
HATCH
  5
15A
330
14F
100
AcDbEntity
  8
Hatch
100
AcDbHatch
 10
0.0
 20
0.0
 30
0.0
210
0.0
220
0.0
230
1.0
  2
SOLID
 70
     1
 71
     0
 91
        1
 92
        1
 93
        4
 72
     2
 10
-1.288215599995812
 20
0.6949340499999935
 40
0.1820490773809734
 50
194.1156009999883
 51
374.1191999999931
 73
     1
 72
     1
 10
-1.111666166139038
 20
0.7393431029072417
 11
-1.006098999995792
 21
0.3045776499999775
 72
     2
 10
-0.7856091629635387
 20
-1.126678140020479
 40
1.448139808409944
 50
98.75776231784591
 51
113.407293107217
 73
     1
 72
     1
 10
-1.360903999995811
 20
0.2022856500000003
 11
-1.464767823032282
 21
0.6505360870270849
 97
        0
 75
     0
 76
     1
 98
        1
 10
0.0
 20
0.0
  0
HATCH
  5
15C
330
14F
100
AcDbEntity
  8
Hatch
100
AcDbHatch
 10
0.0
 20
0.0
 30
0.0
210
0.0
220
0.0
230
1.0
  2
SOLID
 70
     1
 71
     0
 91
        1
 92
        1
 93
        1
 72
     2
 10
-0.6298206591064748
 20
1.046676721594828
 40
0.2985609999891063
 50
0.0
 51
360.0
 73
     1
 97
        0
 75
     0
 76
     1
 98
        1
 10
0.0
 20
0.0
  0
HATCH
  5
164
330
14F
100
AcDbEntity
  8
Hatch
100
AcDbHatch
 10
0.0
 20
0.0
 30
0.0
210
0.0
220
0.0
230
1.0
  2
SOLID
 70
     1
 71
     0
 91
        1
 92
        1
 93
        7
 72
     1
 10
0.0499713260041901
 20
0.0568420499999789
 11
0.5708084000042036
 21
0.0568420499999789
 72
     2
 10
0.5708105888404802
 20
0.3556249862726446
 40
0.2987829362811203
 50
269.9995802602308
 51
449.9995794064582
 73
     1
 72
     1
 10
0.5708127776767569
 20
0.6544079225452748
 11
-0.2482047581505498
 21
0.6544139225374935
 72
     1
 10
-0.2482047581505498
 20
0.6544139225374935
 11
-0.3368947765185837
 21
1.104409710644524
 72
     2
 10
-0.6298206591064039
 20
1.046676721594542
 40
0.2985609999891254
 50
348.8504321595365
 51
527.9877819753263
 73
     0
 72
     1
 10
-0.9218441412547305
 20
0.9845401253852868
 11
-0.7807629370958047
 21
0.3215005155999862
 72
     2
 10
-0.7851822003365072
 20
-1.12849275090184
 40
1.450000000961457
 50
270.1746244993671
 51
305.1674464589362
 73
     0
 97
        0
 75
     0
 76
     1
 98
        1
 10
0.0
 20
0.0
  0
HATCH
  5
167
330
14F
100
AcDbEntity
  8
Hatch
100
AcDbHatch
 10
0.0
 20
0.0
 30
0.0
210
0.0
220
0.0
230
1.0
  2
SOLID
 70
     1
 71
     0
 91
        2
 92
        0
 93
        1
 72
     2
 10
-0.7851821999958021
 20
-1.128492749999985
 40
1.05
 50
0.0
 51
360.0
 73
     1
 97
        0
 92
        1
 93
        1
 72
     2
 10
-0.7851821999958021
 20
-1.128492749999985
 40
1.450000000961457
 50
0.0
 51
360.0
 73
     1
 97
        0
 75
     0
 76
     1
 98
        1
 10
0.0
 20
0.0
  0
HATCH
  5
169
330
14F
100
AcDbEntity
  8
Hatch
100
AcDbHatch
 10
0.0
 20
0.0
 30
0.0
210
0.0
220
0.0
230
1.0
  2
SOLID
 70
     1
 71
     0
 91
        1
 92
        1
 93
        1
 72
     2
 10
-0.7851821999958021
 20
-1.128492749999985
 40
0.2303132000000005
 50
0.0
 51
360.0
 73
     1
 97
        0
 75
     0
 76
     1
 98
        1
 10
0.0
 20
0.0
  0
HATCH
  5
174
330
14F
100
AcDbEntity
  8
Hatch
100
AcDbHatch
 10
0.0
 20
0.0
 30
0.0
210
0.0
220
0.0
230
1.0
  2
SOLID
 70
     1
 71
     0
 91
        1
 92
        1
 93
       10
 72
     1
 10
1.048632343789055
 20
-0.1859091206429042
 11
0.3166594443277404
 21
-0.185909120524208
 72
     2
 10
-0.7851821427137118
 20
-1.128482689539538
 40
1.449999936531157
 50
319.454570500685
 51
343.9443246465982
 73
     0
 72
     1
 10
0.6082582267399417
 20
-0.7274543205714679
 11
0.8004044001399535
 21
-0.7274603206026243
 72
     1
 10
0.8004044001399535
 20
-0.7274603206026243
 11
1.100736557521386
 21
-1.854864663818779
 72
     2
 10
1.345712454885639
 20
-1.759207972723686
 40
0.2629893397852458
 50
201.3293470432384
 51
270.3985507546188
 73
     1
 72
     1
 10
1.347541800004189
 20
-2.022190950000001
 11
1.930175800004203
 21
-2.022190950000001
 72
     2
 10
1.930175800010295
 20
-1.717184550006293
 40
0.3050063999936867
 50
269.9999999988554
 51
449.9994801198416
 73
     1
 72
     1
 10
1.930178567522613
 20
-1.412178150040617
 11
1.577497800028933
 21
-1.41217494995832
 72
     1
 10
1.577497800028933
 20
-1.41217494995832
 11
1.30477342409902
 21
-0.3630304458140543
 72
     2
 10
1.048632343744664
 20
-0.4596768806282016
 40
0.2737677599853261
 50
20.67235376574744
 51
89.99999999070956
 73
     1
 97
        0
 75
     0
 76
     1
 98
        1
 10
0.0
 20
0.0
  0
ARC
  5
175
330
14F
100
AcDbEntity
  8
DV1_EBENE_3
  6
Continuous
 62
     7
370
    25
100
AcDbCircle
 10
-0.7851821999958021
 20
-1.128492749999985
 30
0.0
 40
1.45
100
AcDbArc
 50
40.54679900000003
 51
54.83879900000014
  0
ARC
  5
176
330
14F
100
AcDbEntity
  8
0
  6
Continuous
 62
     7
370
     5
100
AcDbCircle
 10
-0.7851821993772746
 20
-1.128492749338327
 30
0.0
 40
1.44999999913087
100
AcDbArc
 50
40.5454289600747
 51
54.83255353646479
  0
LINE
  5
177
330
14F
100
AcDbEntity
  8
DV1_EBENE_3
  6
Continuous
 62
     7
370
    25
100
AcDbLine
 10
0.0499160000041954
 20
0.0568420499999789
 30
0.0
 11
0.5708100000042116
 21
0.0568420499999789
 31
0.0
  0
ARC
  5
178
330
14F
100
AcDbEntity
  8
Sketch Geometry(ISO)
100
AcDbCircle
 10
-0.7851821427137118
 20
-1.128482689539538
 30
0.0
 40
1.449999936531157
100
AcDbArc
 50
16.0556753534023
 51
40.54542949931561
  0
ARC
  5
179
330
14F
100
AcDbEntity
  8
DV1_EBENE_3
  6
Continuous
 62
     7
370
    25
100
AcDbCircle
 10
-0.7851821999958021
 20
-1.128492749999985
 30
0.0
 40
1.45
100
AcDbArc
 50
0.0
 51
16.05599999999911
  0
ARC
  5
17A
330
14F
100
AcDbEntity
  8
0
  6
Continuous
 62
     7
370
     5
100
AcDbCircle
 10
-0.7851822009241261
 20
-1.128482720374569
 30
0.0
 40
1.45000000099905
100
AcDbArc
 50
0.0
 51
16.05567588814703
  0
CIRCLE
  5
17B
330
14F
100
AcDbEntity
  8
DV1_EBENE_3
  6
Continuous
 62
     7
370
    25
100
AcDbCircle
 10
-0.7851821999958021
 20
-1.128492749999985
 30
0.0
 40
0.2303132000000005
  0
ARC
  5
17C
330
14F
100
AcDbEntity
  8
Sketch Geometry(ISO)
100
AcDbCircle
 10
-0.7851822003365072
 20
-1.12849275090184
 30
0.0
 40
1.450000000961457
100
AcDbArc
 50
54.83255354106379
 51
89.82537550063288
  0
ARC
  5
17D
330
14F
100
AcDbEntity
  8
0
  6
Continuous
 62
     7
370
     5
100
AcDbCircle
 10
-0.7851821999999942
 20
-1.12849274994886
 30
0.0
 40
1.450000000004195
100
AcDbArc
 50
113.3941135595942
 51
0.0
  0
ARC
  5
17E
330
14F
100
AcDbEntity
  8
DV1_EBENE_3
  6
Continuous
 62
     7
370
    25
100
AcDbCircle
 10
-0.7851821999958021
 20
-1.128492749999985
 30
0.0
 40
1.45
100
AcDbArc
 50
113.3927990000001
 51
0.0
  0
CIRCLE
  5
17F
330
14F
100
AcDbEntity
  8
Sketch Geometry(ISO)
100
AcDbCircle
 10
-0.7851821999958021
 20
-1.128492749999985
 30
0.0
 40
1.450000000961457
  0
CIRCLE
  5
180
330
14F
100
AcDbEntity
  8
DV1_EBENE_3
  6
Continuous
 62
     7
370
    25
100
AcDbCircle
 10
-0.7851821999958021
 20
-1.128492749999985
 30
0.0
 40
1.05
  0
CIRCLE
  5
181
330
14F
100
AcDbEntity
  8
Sketch Geometry(ISO)
100
AcDbCircle
 10
-0.7851821999958021
 20
-1.128492749999985
 30
0.0
 40
1.050000000000002
  0
CIRCLE
  5
182
330
14F
100
AcDbEntity
  8
Sketch Geometry(ISO)
100
AcDbCircle
 10
-0.7851821999958021
 20
-1.128492749999985
 30
0.0
 40
0.230313199999995
  0
ARC
  5
183
330
14F
100
AcDbEntity
  8
Sketch Geometry(ISO)
100
AcDbCircle
 10
-0.7856091629635387
 20
-1.126678140020479
 30
0.0
 40
1.448139808409944
100
AcDbArc
 50
98.75776231784591
 51
113.4072931072169
  0
LINE
  5
184
330
14F
100
AcDbEntity
  8
Sketch Geometry(ISO)
100
AcDbLine
 10
0.8004044001399535
 20
-0.7274603206026243
 30
0.0
 11
0.6082582267399417
 21
-0.7274543205714679
 31
0.0
  0
LINE
  5
185
330
14F
100
AcDbEntity
  8
DV1_EBENE_3
  6
Continuous
 62
     7
370
    25
100
AcDbLine
 10
0.6082306000510407
 20
-0.7274613495686211
 30
0.0
 11
0.8004043999573616
 21
-0.7274673504313256
 31
0.0
  0
LINE
  5
186
330
14F
100
AcDbEntity
  8
DV1_EBENE_3
  6
Continuous
 62
     7
370
    25
100
AcDbLine
 10
-1.360903999995811
 20
0.2022856500000003
 30
0.0
 11
-1.467092999995801
 21
0.6500060499999805
 31
0.0
  0
LINE
  5
187
330
14F
100
AcDbEntity
  8
0
  6
Continuous
 62
     7
370
     5
100
AcDbLine
 10
-1.360909920695813
 20
0.2023106133000141
 30
0.0
 11
-1.467168146195819
 21
0.6499871757999998
 31
0.0
  0
ARC
  5
188
330
14F
100
AcDbEntity
  8
DV1_EBENE_3
  6
Continuous
 62
     7
370
    25
100
AcDbCircle
 10
-1.288215599995812
 20
0.6949340499999935
 30
0.0
 40
0.1820490773809734
100
AcDbArc
 50
14.11919999999311
 51
194.1156009999883
  0
LINE
  5
189
330
14F
100
AcDbEntity
  8
Sketch Geometry(ISO)
100
AcDbLine
 10
-0.7807629370958047
 20
0.3215005155999862
 30
0.0
 11
-0.9218441412547305
 21
0.9845401253852868
 31
0.0
  0
ARC
  5
18A
330
14F
100
AcDbEntity
  8
0
  6
Continuous
 62
     7
370
     5
100
AcDbCircle
 10
-0.7851821998311693
 20
-1.12849274934426
 30
0.0
 40
1.449999999402351
100
AcDbArc
 50
89.82537552041328
 51
98.76352491918147
  0
ARC
  5
18B
330
14F
100
AcDbEntity
  8
DV1_EBENE_3
  6
Continuous
 62
     7
370
    25
100
AcDbCircle
 10
-0.7851821999958021
 20
-1.128492749999985
 30
0.0
 40
1.45
100
AcDbArc
 50
89.82720199999993
 51
98.76599900000003
  0
LINE
  5
18C
330
14F
100
AcDbEntity
  8
0
  6
Continuous
 62
     7
370
     5
100
AcDbLine
 10
-1.109338399995801
 20
0.7398604500000161
 30
0.0
 11
-1.006099398795807
 21
0.3045793316999834
 31
0.0
  0
LINE
  5
18D
330
14F
100
AcDbEntity
  8
DV1_EBENE_3
  6
Continuous
 62
     7
370
    25
100
AcDbLine
 10
-1.006098999995792
 20
0.3045776499999775
 30
0.0
 11
-1.109338399995801
 21
0.7398604500000161
 31
0.0
  0
LINE
  5
18E
330
14F
100
AcDbEntity
  8
Sketch Geometry(ISO)
100
AcDbLine
 10
-1.111666166139038
 20
0.7393431029072417
 30
0.0
 11
-1.006098999995792
 21
0.3045776499999775
 31
0.0
  0
LINE
  5
18F
330
14F
100
AcDbEntity
  8
Sketch Geometry(ISO)
100
AcDbLine
 10
-1.464767823032282
 20
0.6505360870270849
 30
0.0
 11
-1.360903999995811
 21
0.2022856500000003
 31
0.0
  0
CIRCLE
  5
190
330
14F
100
AcDbEntity
  8
Sketch Geometry(ISO)
100
AcDbCircle
 10
-1.288215599995812
 20
0.6949340499999935
 30
0.0
 40
0.1820490773809734
  0
LINE
  5
191
330
14F
100
AcDbEntity
  8
DV1_EBENE_3
  6
Continuous
 62
     7
370
    25
100
AcDbLine
 10
1.577497800011452
 20
-1.41217335017334
 30
0.0
 11
1.93013759999692
 21
-1.412176549826718
 31
0.0
  0
LINE
  5
192
330
14F
100
AcDbEntity
  8
0
  6
Continuous
 62
     7
370
     5
100
AcDbLine
 10
1.930175800004203
 20
-2.022190950000001
 30
0.0
 11
1.328029578604184
 21
-2.022190950000001
 31
0.0
  0
ARC
  5
193
330
14F
100
AcDbEntity
  8
DV1_EBENE_3
  6
Continuous
 62
     7
370
    25
100
AcDbCircle
 10
1.347541799972907
 20
-1.757631520691339
 30
0.0
 40
0.2652680000000003
100
AcDbArc
 50
201.5028079907156
 51
265.9787899907161
  0
LINE
  5
194
330
14F
100
AcDbEntity
  8
Sketch Geometry(ISO)
100
AcDbLine
 10
1.577497800028933
 20
-1.41217494995832
 30
0.0
 11
1.930178567522613
 21
-1.412178150040617
 31
0.0
  0
ARC
  5
195
330
14F
100
AcDbEntity
  8
Sketch Geometry(ISO)
100
AcDbCircle
 10
1.345712454885639
 20
-1.759207972723686
 30
0.0
 40
0.2629893397852459
100
AcDbArc
 50
201.3293470432384
 51
270.3985507546188
  0
ARC
  5
196
330
14F
100
AcDbEntity
  8
0
  6
Continuous
 62
     7
370
     5
100
AcDbCircle
 10
1.930175800018218
 20
-1.717184550014039
 30
0.0
 40
0.3050063999859844
100
AcDbArc
 50
0.0
 51
89.99948012132987
  0
ARC
  5
197
330
14F
100
AcDbEntity
  8
Sketch Geometry(ISO)
100
AcDbCircle
 10
1.930175800010295
 20
-1.717184550006293
 30
0.0
 40
0.3050063999936867
100
AcDbArc
 50
270.0
 51
89.99948011984164
  0
ARC
  5
198
330
14F
100
AcDbEntity
  8
0
  6
Continuous
 62
     7
370
     5
100
AcDbCircle
 10
1.930175800018218
 20
-1.717184550014039
 30
0.0
 40
0.3050063999859844
100
AcDbArc
 50
270.0
 51
0.0
  0
LINE
  5
199
330
14F
100
AcDbEntity
  8
Sketch Geometry(ISO)
100
AcDbLine
 10
1.930175800004203
 20
-2.022190950000001
 30
0.0
 11
1.347541800004189
 21
-2.022190950000001
 31
0.0
  0
ARC
  5
19A
330
14F
100
AcDbEntity
  8
Sketch Geometry(ISO)
100
AcDbCircle
 10
-0.6298206591064039
 20
1.046676721594542
 30
0.0
 40
0.2985609999891252
100
AcDbArc
 50
192.0122180246737
 51
11.14956784046415
  0
ARC
  5
19B
330
14F
100
AcDbEntity
  8
0
  6
Continuous
 62
     7
370
     5
100
AcDbCircle
 10
-0.6298206591064748
 20
1.046676721594828
 30
0.0
 40
0.2985609999891042
100
AcDbArc
 50
11.14956784040802
 51
189.2502837002104
  0
CIRCLE
  5
19C
330
14F
100
AcDbEntity
  8
Sketch Geometry(ISO)
100
AcDbCircle
 10
-0.6298206591064748
 20
1.046676721594828
 30
0.0
 40
0.2985609999891064
  0
CIRCLE
  5
19D
330
14F
100
AcDbEntity
  8
DV1_EBENE_3
  6
Continuous
 62
     7
370
    25
100
AcDbCircle
 10
-0.7011489999958087
 20
2.009050049999991
 30
0.0
 40
0.5694427999999988
  0
CIRCLE
  5
19E
330
14F
100
AcDbEntity
  8
Sketch Geometry(ISO)
100
AcDbCircle
 10
-0.7011489999958087
 20
2.009050049999991
 30
0.0
 40
0.5694427999999899
  0
LINE
  5
19F
330
14F
100
AcDbEntity
  8
Sketch Geometry(ISO)
100
AcDbLine
 10
-0.3368947765185837
 20
1.104409710644524
 30
0.0
 11
-0.2482047581505498
 21
0.6544139225374935
 31
0.0
  0
LINE
  5
1A0
330
14F
100
AcDbEntity
  8
Sketch Geometry(ISO)
100
AcDbLine
 10
1.100736557521386
 20
-1.854864663818779
 30
0.0
 11
0.8004044001399535
 21
-0.7274603206026243
 31
0.0
  0
LINE
  5
1A1
330
14F
100
AcDbEntity
  8
DV1_EBENE_3
  6
Continuous
 62
     7
370
    25
100
AcDbLine
 10
0.8004044001399535
 20
-0.7274603206026243
 30
0.0
 11
1.100723647815762
 21
-1.854816202613989
 31
0.0
  0
LINE
  5
1A2
330
14F
100
AcDbEntity
  8
Sketch Geometry(ISO)
100
AcDbLine
 10
1.30477342409902
 20
-0.3630304458140543
 30
0.0
 11
1.577497800028933
 21
-1.41217494995832
 31
0.0
  0
ARC
  5
1A3
330
14F
100
AcDbEntity
  8
0
  6
Continuous
 62
     7
370
     5
100
AcDbCircle
 10
1.046289000214811
 20
-0.4614701498040576
 30
0.0
 40
0.2765945999335329
100
AcDbArc
 50
20.84854375071103
 51
85.02125981535959
  0
ARC
  5
1A4
330
14F
100
AcDbEntity
  8
DV1_EBENE_3
  6
Continuous
 62
     7
370
    25
100
AcDbCircle
 10
1.04628900000419
 20
-0.4614701499999896
 30
0.0
 40
0.2765946000000014
100
AcDbArc
 50
20.87999899999449
 51
85.1075969999975
  0
ARC
  5
1A5
330
14F
100
AcDbEntity
  8
Sketch Geometry(ISO)
100
AcDbCircle
 10
1.048632343744664
 20
-0.4596768806282016
 30
0.0
 40
0.2737677599853261
100
AcDbArc
 50
20.67235376574742
 51
90.0
  0
LINE
  5
1A6
330
14F
100
AcDbEntity
  8
0
  6
Continuous
 62
     7
370
     5
100
AcDbLine
 10
1.30477342409902
 20
-0.3630304458140543
 30
0.0
 11
1.577497800028933
 21
-1.41217494995832
 31
0.0
  0
LINE
  5
1A7
330
14F
100
AcDbEntity
  8
0
  6
Continuous
 62
     7
370
     5
100
AcDbLine
 10
0.5708084000042036
 20
0.0568420499999789
 30
0.0
 11
0.0499713260041901
 21
0.0568420499999789
 31
0.0
  0
LINE
  5
1A8
330
14F
100
AcDbEntity
  8
Sketch Geometry(ISO)
100
AcDbLine
 10
0.0499713260041901
 20
0.0568420499999789
 30
0.0
 11
0.5708084000042036
 21
0.0568420499999789
 31
0.0
  0
LINE
  5
1A9
330
14F
100
AcDbEntity
  8
DV1_EBENE_3
  6
Continuous
 62
     7
370
    25
100
AcDbLine
 10
-0.2482161999957988
 20
0.6544098499999862
 30
0.0
 11
0.5708068000041955
 21
0.6544098499999862
 31
0.0
  0
LINE
  5
1AA
330
14F
100
AcDbEntity
  8
0
  6
Continuous
 62
     7
370
     5
100
AcDbLine
 10
-0.2482161999875743
 20
0.6544113500219595
 30
0.0
 11
0.5708083999959614
 21
0.654405349977978
 31
0.0
  0
LINE
  5
1AB
330
14F
100
AcDbEntity
  8
Sketch Geometry(ISO)
100
AcDbLine
 10
-0.2482047581505498
 20
0.6544139225374935
 30
0.0
 11
0.5708127776767569
 21
0.6544079225452748
 31
0.0
  0
LINE
  5
1AC
330
14F
100
AcDbEntity
  8
Sketch Geometry(ISO)
100
AcDbLine
 10
1.048632343789055
 20
-0.1859091206429042
 30
0.0
 11
0.3166594443277404
 21
-0.185909120524208
 31
0.0
  0
LINE
  5
1AD
330
14F
100
AcDbEntity
  8
0
  6
Continuous
 62
     7
370
     5
100
AcDbLine
 10
0.3166594443277404
 20
-0.185909120524208
 30
0.0
 11
1.070293565427729
 21
-0.1859091206464214
 31
0.0
  0
ARC
  5
1AE
330
14F
100
AcDbEntity
  8
Sketch Geometry(ISO)
100
AcDbCircle
 10
0.5708105888404802
 20
0.3556249862726446
 30
0.0
 40
0.2987829362811203
100
AcDbArc
 50
269.9995802602308
 51
89.9995802602309
  0
ENDBLK
  5
151
330
14F
100
AcDbEntity
  8
0
100
AcDbBlockEnd
  0
BLOCK
  5
1B0
330
1AF
100
AcDbEntity
  8
0
100
AcDbBlockBegin
  2
Wassermengenreg. f. Marketing
 70
     0
 10
0.0
 20
0.0
 30
0.0
  3
Wassermengenreg. f. Marketing
  1

  0
CIRCLE
  5
1B2
330
1AF
100
AcDbEntity
  8
Sketch Geometry(ISO)
  6
Continuous
370
    35
100
AcDbCircle
 10
0.1116880703840017
 20
4.233448017976026
 30
0.0
 40
1.266605528412369
  0
LINE
  5
1B3
330
1AF
100
AcDbEntity
  8
Sketch Geometry(ISO)
  6
Continuous
370
    35
100
AcDbLine
 10
-1.557569369604169
 20
2.564327931462066
 30
0.0
 11
1.780945510372173
 21
2.564327931462066
 31
0.0
  0
LINE
  5
1B4
330
1AF
100
AcDbEntity
  8
Sketch Geometry(ISO)
  6
Continuous
370
    35
100
AcDbLine
 10
-0.9466735383287348
 20
4.233448017976026
 30
0.0
 11
-0.9466735383287348
 21
2.564327931462066
 31
0.0
  0
LINE
  5
1B5
330
1AF
100
AcDbEntity
  8
Sketch Geometry(ISO)
  6
Continuous
370
    35
100
AcDbLine
 10
1.170049679096738
 20
4.233448017976026
 30
0.0
 11
1.170049679096738
 21
2.564327931462066
 31
0.0
  0
LINE
  5
1B6
330
1AF
100
AcDbEntity
  8
Sketch Geometry(ISO)
  6
Continuous
370
    35
100
AcDbLine
 10
1.780945510372173
 20
2.564327931462066
 30
0.0
 11
1.780945510372173
 21
1.244443056685256
 31
0.0
  0
LINE
  5
1B7
330
1AF
100
AcDbEntity
  8
Sketch Geometry(ISO)
  6
Continuous
370
    35
100
AcDbLine
 10
1.780945510372173
 20
1.244443056685256
 30
0.0
 11
1.86594551037217
 21
1.159443056685258
 31
0.0
  0
LINE
  5
1B8
330
1AF
100
AcDbEntity
  8
Sketch Geometry(ISO)
  6
Continuous
370
    35
100
AcDbLine
 10
1.86594551037217
 20
1.159443056685258
 30
0.0
 11
1.86594551037217
 21
0.2900152046613691
 31
0.0
  0
LINE
  5
1B9
330
1AF
100
AcDbEntity
  8
Sketch Geometry(ISO)
  6
Continuous
370
    35
100
AcDbLine
 10
1.86594551037217
 20
0.2900152046613691
 30
0.0
 11
-1.642569369604166
 21
0.2900152046613691
 31
0.0
  0
LINE
  5
1BA
330
1AF
100
AcDbEntity
  8
Sketch Geometry(ISO)
  6
Continuous
370
    35
100
AcDbLine
 10
-1.642569369604166
 20
0.2900152046613691
 30
0.0
 11
-1.642569369604166
 21
1.29774272039171
 31
0.0
  0
LINE
  5
1BB
330
1AF
100
AcDbEntity
  8
Sketch Geometry(ISO)
  6
Continuous
370
    35
100
AcDbLine
 10
-1.642569369604166
 20
1.29774272039171
 30
0.0
 11
-1.557569369604169
 21
1.382742720391707
 31
0.0
  0
LINE
  5
1BC
330
1AF
100
AcDbEntity
  8
Sketch Geometry(ISO)
  6
Continuous
370
    35
100
AcDbLine
 10
-1.557569369604169
 20
1.382742720391707
 30
0.0
 11
-1.557569369604169
 21
2.564327931462066
 31
0.0
  0
ARC
  5
1BD
330
1AF
100
AcDbEntity
  8
Sketch Geometry(ISO)
  6
Continuous
370
    35
100
AcDbCircle
 10
0.1116880703840017
 20
4.233448017976026
 30
0.0
 40
1.058361608712735
100
AcDbArc
 50
0.0
 51
180.0
  0
LINE
  5
1BE
330
1AF
100
AcDbEntity
  8
Sketch Geometry(ISO)
  6
Continuous
370
    35
100
AcDbLine
 10
-1.343376961700819
 20
2.307766729498368
 30
0.0
 11
1.566753102468823
 21
2.307766729498368
 31
0.0
  0
LINE
  5
1BF
330
1AF
100
AcDbEntity
  8
Sketch Geometry(ISO)
  6
Continuous
370
    35
100
AcDbLine
 10
1.566753102468823
 20
2.307766729498368
 30
0.0
 11
1.566753102468823
 21
0.2900152046613691
 31
0.0
  0
LINE
  5
1C0
330
1AF
100
AcDbEntity
  8
Sketch Geometry(ISO)
  6
Continuous
370
    35
100
AcDbLine
 10
1.566753102468823
 20
0.2900152046613691
 30
0.0
 11
-1.343376961700819
 21
0.2900152046613691
 31
0.0
  0
LINE
  5
1C1
330
1AF
100
AcDbEntity
  8
Sketch Geometry(ISO)
  6
Continuous
370
    35
100
AcDbLine
 10
-1.343376961700819
 20
0.2900152046613691
 30
0.0
 11
-1.343376961700819
 21
2.307766729498368
 31
0.0
  0
LINE
  5
1C2
330
1AF
100
AcDbEntity
  8
Sketch Geometry(ISO)
  6
Continuous
370
    35
100
AcDbLine
 10
-0.6161808348845277
 20
0.2900152046613691
 30
0.0
 11
0.7865007751001764
 21
0.2900152046613691
 31
0.0
  0
LINE
  5
1C3
330
1AF
100
AcDbEntity
  8
Sketch Geometry(ISO)
  6
Continuous
370
    35
100
AcDbLine
 10
2.343366034663389
 20
-0.7935636364266152
 30
0.0
 11
2.343366034663389
 21
-2.913925716906539
 31
0.0
  0
LINE
  5
1C4
330
1AF
100
AcDbEntity
  8
Sketch Geometry(ISO)
  6
Continuous
370
    35
100
AcDbLine
 10
2.343366034663389
 20
-2.913925716906539
 30
0.0
 11
-2.119989893895386
 21
-2.913925716906539
 31
0.0
  0
LINE
  5
1C5
330
1AF
100
AcDbEntity
  8
Sketch Geometry(ISO)
  6
Continuous
370
    35
100
AcDbLine
 10
-2.119989893895386
 20
-2.913925716906539
 30
0.0
 11
-2.119989893895386
 21
-0.7935636364266152
 31
0.0
  0
LINE
  5
1C6
330
1AF
100
AcDbEntity
  8
Sketch Geometry(ISO)
  6
Continuous
370
    35
100
AcDbLine
 10
-1.692679318753248
 20
-2.913925716906539
 30
0.0
 11
1.916055459521253
 21
-2.913925716906539
 31
0.0
  0
LINE
  5
1C7
330
1AF
100
AcDbEntity
  8
Sketch Geometry(ISO)
  6
Continuous
370
    35
100
AcDbLine
 10
1.916055459521253
 20
-2.913925716906539
 30
0.0
 11
1.916055459521253
 21
-3.902796868613903
 31
0.0
  0
LINE
  5
1C8
330
1AF
100
AcDbEntity
  8
Sketch Geometry(ISO)
  6
Continuous
370
    35
100
AcDbLine
 10
1.916055459521253
 20
-3.902796868613903
 30
0.0
 11
-1.692679318753248
 21
-3.902796868613903
 31
0.0
  0
LINE
  5
1C9
330
1AF
100
AcDbEntity
  8
Sketch Geometry(ISO)
  6
Continuous
370
    35
100
AcDbLine
 10
-1.692679318753248
 20
-3.902796868613903
 30
0.0
 11
-1.692679318753248
 21
-2.913925716906539
 31
0.0
  0
LINE
  5
1CA
330
1AF
100
AcDbEntity
  8
Sketch Geometry(ISO)
  6
Continuous
370
    35
100
AcDbLine
 10
-1.117812630971605
 20
-3.902796868613903
 30
0.0
 11
1.341188771739609
 21
-3.902796868613903
 31
0.0
  0
LINE
  5
1CB
330
1AF
100
AcDbEntity
  8
Sketch Geometry(ISO)
  6
Continuous
370
    35
100
AcDbLine
 10
1.341188771739609
 20
-3.902796868613903
 30
0.0
 11
1.341188771739609
 21
-4.322721763137558
 31
0.0
  0
LINE
  5
1CC
330
1AF
100
AcDbEntity
  8
Sketch Geometry(ISO)
  6
Continuous
370
    35
100
AcDbLine
 10
1.341188771739609
 20
-4.322721763137558
 30
0.0
 11
-1.117812630971605
 21
-4.322721763137558
 31
0.0
  0
LINE
  5
1CD
330
1AF
100
AcDbEntity
  8
Sketch Geometry(ISO)
  6
Continuous
370
    35
100
AcDbLine
 10
-1.117812630971605
 20
-4.322721763137558
 30
0.0
 11
-1.117812630971605
 21
-3.902796868613903
 31
0.0
  0
LINE
  5
1CE
330
1AF
100
AcDbEntity
  8
Sketch Geometry(ISO)
  6
Continuous
370
    35
100
AcDbLine
 10
-0.3156326869192938
 20
-4.322721763137558
 30
0.0
 11
0.4859526271349425
 21
-4.322721763137558
 31
0.0
  0
LINE
  5
1CF
330
1AF
100
AcDbEntity
  8
Sketch Geometry(ISO)
  6
Continuous
370
    35
100
AcDbLine
 10
2.042817886698137
 20
-4.522721763137552
 30
0.0
 11
2.042817886698137
 21
-5.500053546388396
 31
0.0
  0
LINE
  5
1D0
330
1AF
100
AcDbEntity
  8
Sketch Geometry(ISO)
  6
Continuous
370
    35
100
AcDbLine
 10
2.042817886698137
 20
-5.500053546388396
 30
0.0
 11
-1.819441745930133
 21
-5.500053546388396
 31
0.0
  0
LINE
  5
1D1
330
1AF
100
AcDbEntity
  8
Sketch Geometry(ISO)
  6
Continuous
370
    35
100
AcDbLine
 10
-1.819441745930133
 20
-5.500053546388396
 30
0.0
 11
-1.819441745930133
 21
-4.522721763137552
 31
0.0
  0
CIRCLE
  5
1D2
330
1AF
100
AcDbEntity
  8
Sketch Geometry(ISO)
  6
Continuous
370
    35
100
AcDbCircle
 10
0.1116880703840017
 20
-1.32120806588709
 30
0.0
 40
1.189962382282592
  0
LINE
  5
1D3
330
1AF
100
AcDbEntity
  8
Sketch Geometry(ISO)
  6
Continuous
370
    35
100
AcDbLine
 10
-0.1074039571481045
 20
-0.1515888309565305
 30
0.0
 11
-0.1074039571480867
 21
-2.490827300817651
 31
0.0
  0
LINE
  5
1D4
330
1AF
100
AcDbEntity
  8
Sketch Geometry(ISO)
  6
Continuous
370
    35
100
AcDbLine
 10
0.330780097916108
 20
-0.1515888309565305
 30
0.0
 11
0.3307800979160902
 21
-2.490827300817651
 31
0.0
  0
LINE
  5
1D5
330
1AF
100
AcDbEntity
  8
Sketch Geometry(ISO)
  6
Continuous
370
    35
100
AcDbLine
 10
-2.119989893895386
 20
-0.9802812822072404
 30
0.0
 11
-2.343366034663406
 21
-0.9802812822072404
 31
0.0
  0
LINE
  5
1D6
330
1AF
100
AcDbEntity
  8
Sketch Geometry(ISO)
  6
Continuous
370
    35
100
AcDbLine
 10
-2.343366034663406
 20
-0.9802812822072404
 30
0.0
 11
-2.343366034663406
 21
-2.561316285565772
 31
0.0
  0
LINE
  5
1D7
330
1AF
100
AcDbEntity
  8
Sketch Geometry(ISO)
  6
Continuous
370
    35
100
AcDbLine
 10
-2.343366034663406
 20
-2.561316285565772
 30
0.0
 11
-2.119989893895386
 21
-2.561316285565772
 31
0.0
  0
CIRCLE
  5
1D8
330
1AF
100
AcDbEntity
  8
Sketch Geometry(ISO)
370
    35
100
AcDbCircle
 10
0.1116880703840017
 20
4.233448017976026
 30
0.0
 40
1.266605528412369
  0
LINE
  5
1D9
330
1AF
100
AcDbEntity
  8
Sketch Geometry(ISO)
  6
Continuous
370
    35
100
AcDbLine
 10
2.343366034663389
 20
-0.7935636364266152
 30
0.0
 11
2.343366034663389
 21
0.2900152046613691
 31
0.0
  0
LINE
  5
1DA
330
1AF
100
AcDbEntity
  8
Sketch Geometry(ISO)
  6
Continuous
370
    35
100
AcDbLine
 10
2.343366034663389
 20
0.2900152046613691
 30
0.0
 11
-2.119989893895386
 21
0.2900152046613691
 31
0.0
  0
LINE
  5
1DB
330
1AF
100
AcDbEntity
  8
Sketch Geometry(ISO)
  6
Continuous
370
    35
100
AcDbLine
 10
-2.119989893895386
 20
0.2900152046613691
 30
0.0
 11
-2.119989893895386
 21
-0.7935636364266152
 31
0.0
  0
LINE
  5
1DC
330
1AF
100
AcDbEntity
  8
Sketch Geometry(ISO)
  6
Continuous
370
    35
100
AcDbLine
 10
1.842817886698141
 20
-4.322721763137558
 30
0.0
 11
-1.619441745930139
 21
-4.322721763137558
 31
0.0
  0
ARC
  5
1DD
330
1AF
100
AcDbEntity
  8
Sketch Geometry(ISO)
370
    35
100
AcDbCircle
 10
-1.619441745930139
 20
-4.522721763137552
 30
0.0
 40
0.1999999999999957
100
AcDbArc
 50
90.0
 51
180.0
  0
ARC
  5
1DE
330
1AF
100
AcDbEntity
  8
Sketch Geometry(ISO)
370
    35
100
AcDbCircle
 10
1.842817886698141
 20
-4.522721763137552
 30
0.0
 40
0.1999999999999957
100
AcDbArc
 50
0.0
 51
90.0
  0
ENDBLK
  5
1B1
330
1AF
100
AcDbEntity
  8
0
100
AcDbBlockEnd
  0
BLOCK
  5
1E0
330
1DF
100
AcDbEntity
  8
0
100
AcDbBlockBegin
  2
Title Blocks WS-Marketing-FUN
 70
     2
 10
0.0
 20
0.0
 30
0.0
  3
Title Blocks WS-Marketing-FUN
  1

  0
LINE
  5
4E7
330
1DF
100
AcDbEntity
  8
Visible Edges(DIN)
100
AcDbLine
 10
89.59999999999997
 20
100.2741925130958
 30
0.0
 11
289.6
 21
100.2741925130958
 31
0.0
  0
LINE
  5
4E8
330
1DF
100
AcDbEntity
  8
Visible Edges(DIN)
100
AcDbLine
 10
289.6
 20
100.2741925130958
 30
0.0
 11
289.6
 21
146.0241925130958
 31
0.0
  0
LINE
  5
4E9
330
1DF
100
AcDbEntity
  8
Visible Edges(DIN)
100
AcDbLine
 10
289.6
 20
146.0241925130958
 30
0.0
 11
89.59999999999999
 21
146.0241925130958
 31
0.0
  0
LINE
  5
4EA
330
1DF
100
AcDbEntity
  8
Visible Edges(DIN)
100
AcDbLine
 10
89.59999999999999
 20
146.0241925130958
 30
0.0
 11
89.59999999999997
 21
100.2741925130958
 31
0.0
  0
LINE
  5
4EB
330
1DF
100
AcDbEntity
  8
Visible Edges(DIN)
100
AcDbLine
 10
154.6
 20
100.2741925130958
 30
0.0
 11
154.6
 21
146.0241925130958
 31
0.0
  0
LINE
  5
4EC
330
1DF
100
AcDbEntity
  8
Visible Edges(DIN)
100
AcDbLine
 10
204.6
 20
100.2741925130958
 30
0.0
 11
204.6
 21
146.0241925130958
 31
0.0
  0
LINE
  5
4ED
330
1DF
100
AcDbEntity
  8
Sketch Geometry(ISO)
  6
Continuous
 62
     7
370
    25
100
AcDbLine
 10
109.6
 20
131.0241925130958
 30
0.0
 11
109.6
 21
146.0241925130958
 31
0.0
  0
LINE
  5
4EE
330
1DF
100
AcDbEntity
  8
Sketch Geometry(ISO)
  6
Continuous
 62
     7
370
    25
100
AcDbLine
 10
89.59999999999999
 20
138.5241925130958
 30
0.0
 11
154.6
 21
138.5241925130958
 31
0.0
  0
LINE
  5
4EF
330
1DF
100
AcDbEntity
  8
Sketch Geometry(ISO)
  6
Continuous
 62
     7
370
    25
100
AcDbLine
 10
89.59999999999999
 20
131.0241925130958
 30
0.0
 11
154.6
 21
131.0241925130958
 31
0.0
  0
LINE
  5
4F0
330
1DF
100
AcDbEntity
  8
Sketch Geometry(ISO)
  6
Continuous
 62
     7
370
    25
100
AcDbLine
 10
289.6
 20
110.2741925130957
 30
0.0
 11
204.6
 21
110.2741925130957
 31
0.0
  0
LINE
  5
4F1
330
1DF
100
AcDbEntity
  8
Sketch Geometry(ISO)
  6
Continuous
 62
     7
370
    25
100
AcDbLine
 10
216.6
 20
100.2741925130958
 30
0.0
 11
216.6
 21
110.2741925130957
 31
0.0
  0
LINE
  5
4F2
330
1DF
100
AcDbEntity
  8
Sketch Geometry(ISO)
  6
Continuous
 62
     7
370
    25
100
AcDbLine
 10
282.1
 20
110.2741925130957
 30
0.0
 11
282.1
 21
100.2741925130958
 31
0.0
  0
LINE
  5
4F3
330
1DF
100
AcDbEntity
  8
Sketch Geometry(ISO)
  6
Continuous
 62
     7
370
    25
100
AcDbLine
 10
274.6
 20
110.2741925130957
 30
0.0
 11
274.6
 21
100.2741925130958
 31
0.0
  0
LINE
  5
4F4
330
1DF
100
AcDbEntity
  8
Sketch Geometry(ISO)
  6
Continuous
 62
     7
370
    25
100
AcDbLine
 10
220.7048524866916
 20
143.6616925130957
 30
0.0
 11
226.2048524866916
 21
144.4616925130956
 31
0.0
  0
LINE
  5
4F5
330
1DF
100
AcDbEntity
  8
Centerline(ISO)
  6
Continuous
 62
     7
370
    18
100
AcDbLine
 10
227.2048524866917
 20
142.4616925130957
 30
0.0
 11
219.7048524866915
 21
142.4616925130957
 31
0.0
  0
LINE
  5
4F6
330
1DF
100
AcDbEntity
  8
Sketch Geometry(ISO)
  6
Continuous
 62
     7
370
    25
100
AcDbLine
 10
220.7048524866916
 20
143.6616925130957
 30
0.0
 11
220.7048524866916
 21
141.2616925130957
 31
0.0
  0
LINE
  5
4F7
330
1DF
100
AcDbEntity
  8
Sketch Geometry(ISO)
  6
Continuous
 62
     7
370
    25
100
AcDbLine
 10
220.7048524866916
 20
141.2616925130957
 30
0.0
 11
226.2048524866916
 21
140.4616925130957
 31
0.0
  0
LINE
  5
4F8
330
1DF
100
AcDbEntity
  8
Centerline(ISO)
  6
Continuous
 62
     7
370
    18
100
AcDbLine
 10
227.7048524866915
 20
142.4616925130957
 30
0.0
 11
233.7048524866915
 21
142.4616925130957
 31
0.0
  0
LINE
  5
4F9
330
1DF
100
AcDbEntity
  8
Sketch Geometry(ISO)
  6
Continuous
 62
     7
370
    25
100
AcDbLine
 10
226.2048524866916
 20
144.4616925130956
 30
0.0
 11
226.2048524866916
 21
140.4616925130957
 31
0.0
  0
CIRCLE
  5
4FA
330
1DF
100
AcDbEntity
  8
Sketch Geometry(ISO)
  6
Continuous
 62
     7
370
    25
100
AcDbCircle
 10
230.7048524866915
 20
142.4616925130957
 30
0.0
 40
1.199999999999999
  0
LINE
  5
4FB
330
1DF
100
AcDbEntity
  8
Centerline(ISO)
  6
Continuous
 62
     7
370
    18
100
AcDbLine
 10
230.7048524866914
 20
145.4616925130956
 30
0.0
 11
230.7048524866914
 21
139.4616925130957
 31
0.0
  0
CIRCLE
  5
4FC
330
1DF
100
AcDbEntity
  8
Sketch Geometry(ISO)
  6
Continuous
 62
     7
370
    25
100
AcDbCircle
 10
230.7048524866915
 20
142.4616925130957
 30
0.0
 40
2.0
  0
LINE
  5
4FD
330
1DF
100
AcDbEntity
  8
Sketch Geometry(ISO)
  6
Continuous
 62
     7
370
    25
100
AcDbLine
 10
134.6
 20
131.0241925130958
 30
0.0
 11
134.6
 21
146.0241925130958
 31
0.0
  0
LINE
  5
4FE
330
1DF
100
AcDbEntity
  8
Sketch Geometry(ISO)
  6
Continuous
 62
     7
370
    35
100
AcDbLine
 10
204.6
 20
138.5241925130958
 30
0.0
 11
289.6
 21
138.5241925130958
 31
0.0
  0
LINE
  5
4FF
330
1DF
100
AcDbEntity
  8
Sketch Geometry(ISO)
  6
Continuous
 62
     7
370
    25
100
AcDbLine
 10
204.6
 20
131.0241925130958
 30
0.0
 11
289.6
 21
131.0241925130958
 31
0.0
  0
LINE
  5
500
330
1DF
100
AcDbEntity
  8
Sketch Geometry(ISO)
  6
Continuous
 62
     7
370
    25
100
AcDbLine
 10
247.1
 20
146.0241925130956
 30
0.0
 11
247.1
 21
131.0241925130958
 31
0.0
  0
LINE
  5
501
330
1DF
100
AcDbEntity
  8
Sketch Geometry(ISO)
  6
Continuous
 62
     7
370
    25
100
AcDbLine
 10
263.6
 20
110.2741925130957
 30
0.0
 11
263.6
 21
100.2741925130958
 31
0.0
  0
LINE
  5
5C6
330
1DF
100
AcDbEntity
  8
Sketch Geometry(ISO)
  6
Continuous
 62
     7
370
    25
100
AcDbLine
 10
89.59999999999999
 20
110.2741925130958
 30
0.0
 11
154.6
 21
110.2741925130957
 31
0.0
  0
MTEXT
  5
5C7
330
1DF
100
AcDbEntity
  8
Symbols(ISO)
 62
     7
100
AcDbMText
 10
155.6
 20
144.5241925130958
 30
0.0
 40
1.49859994649887
 41
23.77876622243585
 71
     4
 72
     1
  1
Revision Description:
  7
Text__1.5mm
 73
     1
 44
1.0
1001
ACAD
1000
MTEXTBEGIN
1070
    73
1070
     1
1070
    44
1040
1.0
1070
    74
1070
     0
1000
MTEXTEND
  0
MTEXT
  5
5C9
330
1DF
100
AcDbEntity
  8
Symbols(ISO)
 62
     7
100
AcDbMText
 10
264.6
 20
108.7741925130957
 30
0.0
 40
1.49859994649887
 41
6.687050822926429
 71
     4
 72
     1
  1
\fArial|b0|i0;Rev.
  7
Text__1.5mm
 73
     1
 44
1.0
1001
ACAD
1000
MTEXTBEGIN
1070
    73
1070
     1
1070
    44
1040
1.0
1070
    74
1070
     0
1000
MTEXTEND
  0
MTEXT
  5
5CA
330
1DF
100
AcDbEntity
  8
Symbols(ISO)
 62
     7
100
AcDbMText
 10
275.6
 20
108.7741925130957
 30
0.0
 40
1.49859994649887
 41
6.687050822926429
 71
     4
 72
     1
  1
\fArial|b0|i0;Sheet
  7
Text__1.5mm
 73
     1
 44
1.0
1001
ACAD
1000
MTEXTBEGIN
1070
    73
1070
     1
1070
    44
1040
1.0
1070
    74
1070
     0
1000
MTEXTEND
  0
MTEXT
  5
5CB
330
1DF
100
AcDbEntity
  8
Symbols(ISO)
 62
     7
100
AcDbMText
 10
205.6
 20
108.7741925130957
 30
0.0
 40
1.49859994649887
 41
6.629477143287657
 71
     4
 72
     1
  1
\fArial|b0|i0;Format
  7
Text__1.5mm
 73
     1
 44
1.0
1001
ACAD
1000
MTEXTBEGIN
1070
    73
1070
     1
1070
    44
1040
1.0
1070
    74
1070
     0
1000
MTEXTEND
  0
MTEXT
  5
5CC
330
1DF
100
AcDbEntity
  8
Symbols(ISO)
 62
     7
100
AcDbMText
 10
248.1
 20
137.0241925130958
 30
0.0
 40
1.49859994649887
 41
9.419934749603273
 71
     4
 72
     1
  1
EAN / UPC
  7
Text__1.5mm
 73
     1
 44
1.0
1001
ACAD
1000
MTEXTBEGIN
1070
    73
1070
     1
1070
    44
1040
1.0
1070
    74
1070
     0
1000
MTEXTEND
  0
MTEXT
  5
5CD
330
1DF
100
AcDbEntity
  8
Symbols(ISO)
 62
     7
100
AcDbMText
 10
205.6
 20
144.3687682948396
 30
0.0
 40
1.49859994649887
 41
8.959617614746091
 71
     4
 72
     1
  1
Projection
  7
Text__1.5mm
 73
     1
 44
1.0
1001
ACAD
1000
MTEXTBEGIN
1070
    73
1070
     1
1070
    44
1040
1.0
1070
    74
1070
     0
1000
MTEXTEND
  0
MTEXT
  5
5CE
330
1DF
100
AcDbEntity
  8
Symbols(ISO)
 62
     7
100
AcDbMText
 10
248.1
 20
144.3687682948396
 30
0.0
 40
1.49859994649887
 41
41.00067758866361
 71
     4
 72
     1
  1
Local part number (producing site)
  7
Text__1.5mm
 73
     1
 44
1.0
1001
ACAD
1000
MTEXTBEGIN
1070
    73
1070
     1
1070
    44
1040
1.0
1070
    74
1070
     0
1000
MTEXTEND
  0
MTEXT
  5
5CF
330
1DF
100
AcDbEntity
  8
Symbols(ISO)
 62
     7
100
AcDbMText
 10
218.1
 20
108.7741925130957
 30
0.0
 40
1.49859994649887
 41
13.84170077910116
 71
     4
 72
     1
  1
Drawing number
  7
Text__1.5mm
 73
     1
 44
1.0
1001
ACAD
1000
MTEXTBEGIN
1070
    73
1070
     1
1070
    44
1040
1.0
1070
    74
1070
     0
1000
MTEXTEND
  0
MTEXT
  5
5D0
330
1DF
100
AcDbEntity
  8
Symbols(ISO)
 62
     7
100
AcDbMText
 10
205.6
 20
137.0241925130958
 30
0.0
 40
1.49859994649887
 41
16.71329739486093
 71
     4
 72
     1
  1
WS global number
  7
Text__1.5mm
 73
     1
 44
1.0
1001
ACAD
1000
MTEXTBEGIN
1070
    73
1070
     1
1070
    44
1040
1.0
1070
    74
1070
     0
1000
MTEXTEND
  0
MTEXT
  5
5D1
330
1DF
100
AcDbEntity
  8
Symbols(ISO)
 62
     7
100
AcDbMText
 10
283.1
 20
108.7741925130957
 30
0.0
 40
1.49859994649887
 41
6.687050822926429
 71
     4
 72
     1
  1
Sheets
  7
Text__1.5mm
 73
     1
 44
1.0
1001
ACAD
1000
MTEXTBEGIN
1070
    73
1070
     1
1070
    44
1040
1.0
1070
    74
1070
     0
1000
MTEXTEND
  0
MTEXT
  5
5D3
330
1DF
100
AcDbEntity
  8
Symbols(ISO)
 62
     7
100
AcDbMText
 10
90.6
 20
144.5241925130958
 30
0.0
 40
1.49859994649887
 41
8.959617614746091
 71
     4
 72
     1
  1
Drawn by
  7
Text__1.5mm
 73
     1
 44
1.0
1001
ACAD
1000
MTEXTBEGIN
1070
    73
1070
     1
1070
    44
1040
1.0
1070
    74
1070
     0
1000
MTEXTEND
  0
MTEXT
  5
5D4
330
1DF
100
AcDbEntity
  8
Symbols(ISO)
 62
     7
100
AcDbMText
 10
90.6
 20
137.0241925130958
 30
0.0
 40
1.49859994649887
 41
9.318276643753053
 71
     4
 72
     1
  1
Revised by
  7
Text__1.5mm
 73
     1
 44
1.0
1001
ACAD
1000
MTEXTBEGIN
1070
    73
1070
     1
1070
    44
1040
1.0
1070
    74
1070
     0
1000
MTEXTEND
  0
MTEXT
  5
5D5
330
1DF
100
AcDbEntity
  8
Symbols(ISO)
 62
     7
100
AcDbMText
 10
135.6
 20
137.0241925130958
 30
0.0
 40
1.49859994649887
 41
12.0866436953507
 71
     4
 72
     1
  1
Revision date
  7
Text__1.5mm
 73
     1
 44
1.0
1001
ACAD
1000
MTEXTBEGIN
1070
    73
1070
     1
1070
    44
1040
1.0
1070
    74
1070
     0
1000
MTEXTEND
  0
MTEXT
  5
5D6
330
1DF
100
AcDbEntity
  8
Symbols(ISO)
 62
     7
100
AcDbMText
 10
135.6
 20
144.5241925130958
 30
0.0
 40
1.49859994649887
 41
12.73810746214334
 71
     4
 72
     1
  1
Creation date
  7
Text__1.5mm
 73
     1
 44
1.0
1001
ACAD
1000
MTEXTBEGIN
1070
    73
1070
     1
1070
    44
1040
1.0
1070
    74
1070
     0
1000
MTEXTEND
  0
MTEXT
  5
5D7
330
1DF
100
AcDbEntity
  8
Symbols(ISO)
 62
     7
100
AcDbMText
 10
110.6
 20
144.5241925130958
 30
0.0
 40
1.49859994649887
 41
10.88769435882568
 71
     4
 72
     1
  1
Departement
  7
Text__1.5mm
 73
     1
 44
1.0
1001
ACAD
1000
MTEXTBEGIN
1070
    73
1070
     1
1070
    44
1040
1.0
1070
    74
1070
     0
1000
MTEXTEND
  0
MTEXT
  5
5D8
330
1DF
100
AcDbEntity
  8
Symbols(ISO)
 62
     7
100
AcDbMText
 10
110.6
 20
137.0241925130958
 30
0.0
 40
1.49859994649887
 41
13.53864551460898
 71
     4
 72
     1
  1
Departement
  7
Text__1.5mm
 73
     1
 44
1.0
1001
ACAD
1000
MTEXTBEGIN
1070
    73
1070
     1
1070
    44
1040
1.0
1070
    74
1070
     0
1000
MTEXTEND
  0
ATTDEF
  5
5D9
102
{ACAD_XDICTIONARY
360
5DA
102
}
330
1DF
100
AcDbEntity
  8
Symbols(ISO)
 62
     7
100
AcDbText
 10
206.0474761255116
 20
123.5651202075023
 30
0.0
 40
5.0
  1
Einzelwaschtisch
  7
Text Style20
100
AcDbAttributeDefinition
  3
Title
  2
Title_001
 70
     0
  0
ATTDEF
  5
5DB
102
{ACAD_XDICTIONARY
360
5DC
102
}
330
1DF
100
AcDbEntity
  8
Symbols(ISO)
 62
     7
100
AcDbText
 10
206.6000000000001
 20
117.7968733064955
 30
0.0
 40
3.499999940395355
  1
ANMX460
  7
Text Style9
100
AcDbAttributeDefinition
  3
Auxiliary_Remark1
  2
Auxiliary_Remark1_001
 70
     0
  0
ATTDEF
  5
5DD
102
{ACAD_XDICTIONARY
360
5DE
102
}
330
1DF
100
AcDbEntity
  8
Symbols(ISO)
 62
     7
100
AcDbText
 10
206.2371077824419
 20
111.7886877592386
 30
0.0
 40
3.499999940395355
  1
Marketingzeichnung
  7
Text Style9
100
AcDbAttributeDefinition
  3
Auxiliary_Remark2
  2
Auxiliary_Remark2_001
 70
     0
  0
ATTDEF
  5
5DF
102
{ACAD_XDICTIONARY
360
5E0
102
}
330
1DF
100
AcDbEntity
  8
Symbols(ISO)
 62
     7
100
AcDbText
 10
248.0556616643929
 20
139.7903930587984
 30
0.0
 40
2.5
  1
4000080198
  7
Text Style38
100
AcDbAttributeDefinition
  3
Part_number
  2
Part_number_001
 70
     0
  0
ATTDEF
  5
5E1
102
{ACAD_XDICTIONARY
360
5E2
102
}
330
1DF
100
AcDbEntity
  8
Symbols(ISO)
 62
     7
100
AcDbText
 10
217.8100954979536
 20
101.8082989251011
 30
0.0
 40
5.0
  1
0222-233292
  7
Text Style20
100
AcDbAttributeDefinition
  3
Document_Number
  2
Document_Number_001
 70
     0
  0
ATTDEF
  5
5E3
102
{ACAD_XDICTIONARY
360
5E4
102
}
330
1DF
100
AcDbEntity
  8
Symbols(ISO)
 62
     7
100
AcDbText
 10
155.6
 20
136.0241924832935
 30
0.0
 40
2.000000029802321
  1

  7
Text Style40
 11
155.6
 21
138.0241925130958
 31
0.0
100
AcDbAttributeDefinition
  3
Revision_Memo_1
  2
Revision_Memo_1
 70
     0
 74
     3
  0
ATTDEF
  5
5E5
102
{ACAD_XDICTIONARY
360
5E6
102
}
330
1DF
100
AcDbEntity
  8
Symbols(ISO)
 62
     7
100
AcDbText
 10
264.6
 20
101.7741925130957
 30
0.0
 40
5.0
  1
A
  7
Text Style20
100
AcDbAttributeDefinition
  3
Revision_Index_1
  2
Revision_Index_1_001
 70
     0
  0
ATTDEF
  5
5E7
102
{ACAD_XDICTIONARY
360
5E8
102
}
330
1DF
100
AcDbEntity
  8
Symbols(ISO)
 62
     7
100
AcDbText
 10
205.6
 20
101.7741925130957
 30
0.0
 40
5.0
  1
A4
  7
Text Style20
100
AcDbAttributeDefinition
  3
Sheet Size
  2
Sheet_Size_001
 70
     0
  0
ATTDEF
  5
5E9
102
{ACAD_XDICTIONARY
360
5EA
102
}
330
1DF
100
AcDbEntity
  8
Symbols(ISO)
 62
     7
100
AcDbText
 10
90.37626193391025
 20
140.0405635762012
 30
0.0
 40
2.000000029802321
  1
Haken
  7
Text Style40
100
AcDbAttributeDefinition
  3
Drawn_By
  2
Drawn_By_001
 70
     0
  0
ATTDEF
  5
5EB
102
{ACAD_XDICTIONARY
360
5EC
102
}
330
1DF
100
AcDbEntity
  8
Symbols(ISO)
 62
     7
100
AcDbText
 10
90.37626193391025
 20
132.5405635762012
 30
0.0
 40
2.000000029802321
  1
Haken
  7
Text Style40
100
AcDbAttributeDefinition
  3
Modified_By
  2
Modified_By_001
 70
     0
  0
ATTDEF
  5
5ED
102
{ACAD_XDICTIONARY
360
5EE
102
}
330
1DF
100
AcDbEntity
  8
Symbols(ISO)
 62
     7
100
AcDbText
 10
135.4826739409529
 20
140.0378350632001
 30
0.0
 40
2.000000029802321
  1
30.08.2011
  7
Text Style40
100
AcDbAttributeDefinition
  3
Drawn_Date
  2
Drawn_Date_001
 70
     0
  0
ATTDEF
  5
5EF
102
{ACAD_XDICTIONARY
360
5F0
102
}
330
1DF
100
AcDbEntity
  8
Symbols(ISO)
 62
     7
100
AcDbText
 10
135.4840381974535
 20
132.5371529349498
 30
0.0
 40
2.000000029802321
  1
01.09.2011
  7
Text Style40
100
AcDbAttributeDefinition
  3
Modified_Date
  2
Modified_Date_001
 70
     0
  0
ATTDEF
  5
5F1
102
{ACAD_XDICTIONARY
360
5F2
102
}
330
1DF
100
AcDbEntity
  8
Symbols(ISO)
 62
     7
100
AcDbText
 10
155.6
 20
140.0241924981946
 30
0.0
 40
2.000000029802321
  1

  7
Text Style40
 11
155.6
 21
141.0241925130958
 31
0.0
100
AcDbAttributeDefinition
  3
Revision_Titel_1
  2
Revision_Titel_1
 70
     0
 74
     2
  0
ATTDEF
  5
5F3
102
{ACAD_XDICTIONARY
360
5F4
102
}
330
1DF
100
AcDbEntity
  8
Symbols(ISO)
 62
     7
100
AcDbText
 10
276.5972714870396
 20
101.8168255281025
 30
0.0
 40
5.0
  1
5
 41
0.9
  7
Text__5.0mm
100
AcDbAttributeDefinition
  3
Sheet number
  2
Sheet_number_001
 70
     0
  0
ATTDEF
  5
5F5
102
{ACAD_XDICTIONARY
360
5F6
102
}
330
1DF
100
AcDbEntity
  8
Symbols(ISO)
 62
     7
100
AcDbText
 10
284.0972714870396
 20
101.8168255281025
 30
0.0
 40
5.0
  1
5
 41
0.9
  7
Text__5.0mm
100
AcDbAttributeDefinition
  3
Number of sheets
  2
Number_of_sheets_001
 70
     0
  0
ATTDEF
  5
5F7
102
{ACAD_XDICTIONARY
360
5F8
102
}
330
1DF
100
AcDbEntity
  8
Symbols(ISO)
 62
     7
100
AcDbText
 10
205.6
 20
132.2741925130958
 30
0.0
 40
2.5
  1

  7
Text Style38
 11
205.6
 21
133.5241925130958
 31
0.0
100
AcDbAttributeDefinition
  3
FUN
  2
FUN
 70
     0
 74
     2
  0
ATTDEF
  5
5F9
102
{ACAD_XDICTIONARY
360
5FA
102
}
330
1DF
100
AcDbEntity
  8
Symbols(ISO)
 62
     7
100
AcDbText
 10
247.9345839017735
 20
132.2903930587984
 30
0.0
 40
2.5
  1
7612982005206
  7
Text Style38
100
AcDbAttributeDefinition
  3
EAN
  2
EAN_001
 70
     0
  0
ATTDEF
  5
5FB
102
{ACAD_XDICTIONARY
360
5FC
102
}
330
1DF
100
AcDbEntity
  8
Symbols(ISO)
 62
     7
100
AcDbText
 10
110.370804907908
 20
132.8181897740626
 30
0.0
 40
2.000000029802321
  1
FAR-Marketing
  7
Text Style40
100
AcDbAttributeDefinition
  3
Departement
  2
Departement_001
 70
     0
  0
ATTDEF
  5
5FD
102
{ACAD_XDICTIONARY
360
5FE
102
}
330
1DF
100
AcDbEntity
  8
Symbols(ISO)
 62
     7
100
AcDbText
 10
110.370804907908
 20
140.3181897740626
 30
0.0
 40
2.000000029802321
  1
FAR-Marketing
  7
Text Style40
100
AcDbAttributeDefinition
  3
Departement
  2
Departement_001
 70
     0
  0
ENDBLK
  5
1E1
330
1DF
100
AcDbEntity
  8
0
100
AcDbBlockEnd
  0
BLOCK
  5
301
330
300
100
AcDbEntity
  8
0
100
AcDbBlockBegin
  2
Borders Planung Border
 70
     0
 10
0.0
 20
0.0
 30
0.0
  3
Borders Planung Border
  1

  0
LINE
  5
303
330
300
100
AcDbEntity
  8
Sketch Geometry(DIN)
100
AcDbLine
 10
4.999999999999946
 20
292.0
 30
0.0
 11
205.0
 21
292.0
 31
0.0
  0
LINE
  5
304
330
300
100
AcDbEntity
  8
Sketch Geometry(DIN)
100
AcDbLine
 10
205.0
 20
292.0
 30
0.0
 11
205.0
 21
5.0
 31
0.0
  0
LINE
  5
305
330
300
100
AcDbEntity
  8
Sketch Geometry(DIN)
100
AcDbLine
 10
205.0
 20
5.0
 30
0.0
 11
5.0
 21
4.999999999999974
 31
0.0
  0
LINE
  5
306
330
300
100
AcDbEntity
  8
Sketch Geometry(DIN)
100
AcDbLine
 10
4.999999999999981
 20
4.999999999999974
 30
0.0
 11
4.999999999999946
 21
292.0
 31
0.0
  0
ENDBLK
  5
302
330
300
100
AcDbEntity
  8
0
100
AcDbBlockEnd
  0
ENDSEC
  0
SECTION
  2
ENTITIES
  0
INSERT
  5
2EB
330
77
100
AcDbEntity
  8
0
100
AcDbBlockReference
 66
     1
  2
Title Blocks WS-Marketing-FUN
 10
-465.3
 20
-524.0080588220267
 30
0.0
 41
5.5
 42
5.5
 43
5.5
  0
ATTRIB
  5
2ED
102
{ACAD_XDICTIONARY
360
468
102
}
330
2EB
100
AcDbEntity
  8
Symbols(ISO)
 62
     7
100
AcDbText
 10
667.9611186903137
 20
155.6001023192362
 30
0.0
 40
27.5
  1
Einzelwaschtisch
  7
Text Style20
100
AcDbAttribute
  2
Title_001
 70
     0
  0
ATTRIB
  5
2EE
102
{ACAD_XDICTIONARY
360
46B
102
}
330
2EB
100
AcDbEntity
  8
Symbols(ISO)
 62
     7
100
AcDbText
 10
671.0000000000002
 20
123.8747443636985
 30
0.0
 40
19.24999967217445
  1
ANMX460
  7
Text Style9
100
AcDbAttribute
  2
Auxiliary_Remark1_001
 70
     0
  0
ATTRIB
  5
2EF
102
{ACAD_XDICTIONARY
360
46E
102
}
330
2EB
100
AcDbEntity
  8
Symbols(ISO)
 62
     7
100
AcDbText
 10
669.0040928034307
 20
90.82972385378592
 30
0.0
 40
19.24999967217445
  1
Marketingzeichnung
  7
Text Style9
100
AcDbAttribute
  2
Auxiliary_Remark2_001
 70
     0
  0
ATTRIB
  5
2F0
102
{ACAD_XDICTIONARY
360
471
102
}
330
2EB
100
AcDbEntity
  8
Symbols(ISO)
 62
     7
100
AcDbText
 10
899.0061391541612
 20
244.8391030013645
 30
0.0
 40
13.75
  1
4000080198
  7
Text Style38
100
AcDbAttribute
  2
Part_number_001
 70
     0
  0
ATTRIB
  5
2F1
102
{ACAD_XDICTIONARY
360
474
102
}
330
2EB
100
AcDbEntity
  8
Symbols(ISO)
 62
     7
100
AcDbText
 10
732.6555252387445
 20
35.93758526602994
 30
0.0
 40
27.5
  1
0222-233292
  7
Text Style20
100
AcDbAttribute
  2
Document_Number_001
 70
     0
  0
ATTRIB
  5
2F2
102
{ACAD_XDICTIONARY
360
477
102
}
330
2EB
100
AcDbEntity
  8
Symbols(ISO)
 62
     7
100
AcDbText
 10
390.5
 20
224.1249998360873
 30
0.0
 40
11.00000016391277
  1

  7
Text Style40
 11
390.5
 21
235.1250000000001
 31
0.0
100
AcDbAttribute
  2
Revision_Memo_1
 70
     0
 74
     3
  0
ATTRIB
  5
2F3
102
{ACAD_XDICTIONARY
360
47A
102
}
330
2EB
100
AcDbEntity
  8
Symbols(ISO)
 62
     7
100
AcDbText
 10
990.0
 20
35.74999999999963
 30
0.0
 40
27.5
  1
A
  7
Text Style20
100
AcDbAttribute
  2
Revision_Index_1_001
 70
     0
  0
ATTRIB
  5
2F4
102
{ACAD_XDICTIONARY
360
47D
102
}
330
2EB
100
AcDbEntity
  8
Symbols(ISO)
 62
     7
100
AcDbText
 10
665.5000000000001
 20
35.74999999999992
 30
0.0
 40
27.5
  1
A4
  7
Text Style20
100
AcDbAttribute
  2
Sheet_Size_001
 70
     0
  0
ATTRIB
  5
2F5
102
{ACAD_XDICTIONARY
360
480
102
}
330
2EB
100
AcDbEntity
  8
Symbols(ISO)
 62
     7
100
AcDbText
 10
31.76944063650624
 20
246.2150408470799
 30
0.0
 40
11.00000016391277
  1
Haken
  7
Text Style40
100
AcDbAttribute
  2
Drawn_By_001
 70
     0
  0
ATTRIB
  5
2F6
102
{ACAD_XDICTIONARY
360
483
102
}
330
2EB
100
AcDbEntity
  8
Symbols(ISO)
 62
     7
100
AcDbText
 10
31.76944063650624
 20
204.9650408470802
 30
0.0
 40
11.00000016391277
  1
Haken
  7
Text Style40
100
AcDbAttribute
  2
Modified_By_001
 70
     0
  0
ATTRIB
  5
2F7
102
{ACAD_XDICTIONARY
360
486
102
}
330
2EB
100
AcDbEntity
  8
Symbols(ISO)
 62
     7
100
AcDbText
 10
279.8547066752411
 20
246.2000340255739
 30
0.0
 40
11.00000016391277
  1
30.08.2011
  7
Text Style40
100
AcDbAttribute
  2
Drawn_Date_001
 70
     0
  0
ATTRIB
  5
2F8
102
{ACAD_XDICTIONARY
360
489
102
}
330
2EB
100
AcDbEntity
  8
Symbols(ISO)
 62
     7
100
AcDbText
 10
279.8622100859942
 20
204.9462823201976
 30
0.0
 40
11.00000016391277
  1
01.09.2011
  7
Text Style40
100
AcDbAttribute
  2
Modified_Date_001
 70
     0
  0
ATTRIB
  5
2F9
102
{ACAD_XDICTIONARY
360
48C
102
}
330
2EB
100
AcDbEntity
  8
Symbols(ISO)
 62
     7
100
AcDbText
 10
390.5
 20
246.1249999180437
 30
0.0
 40
11.00000016391277
  1

  7
Text Style40
 11
390.5
 21
251.6250000000001
 31
0.0
100
AcDbAttribute
  2
Revision_Titel_1
 70
     0
 74
     2
  0
ATTRIB
  5
2FA
102
{ACAD_XDICTIONARY
360
48F
102
}
330
2EB
100
AcDbEntity
  8
Symbols(ISO)
 62
     7
100
AcDbText
 10
1055.984993178717
 20
35.98448158253715
 30
0.0
 40
27.5
  1
5
 41
0.9
  7
Text__5.0mm
100
AcDbAttribute
  2
Sheet_number_001
 70
     0
  0
ATTRIB
  5
2FB
102
{ACAD_XDICTIONARY
360
492
102
}
330
2EB
100
AcDbEntity
  8
Symbols(ISO)
 62
     7
100
AcDbText
 10
1097.234993178717
 20
35.98448158253715
 30
0.0
 40
27.5
  1
5
 41
0.9
  7
Text__5.0mm
100
AcDbAttribute
  2
Number_of_sheets_001
 70
     0
  0
ATTRIB
  5
2FC
102
{ACAD_XDICTIONARY
360
495
102
}
330
2EB
100
AcDbEntity
  8
Symbols(ISO)
 62
     7
100
AcDbText
 10
665.5000000000001
 20
203.5000000000002
 30
0.0
 40
13.75
  1

  7
Text Style38
 11
665.5000000000001
 21
210.3750000000002
 31
0.0
100
AcDbAttribute
  2
FUN
 70
     0
 74
     2
  0
ATTRIB
  5
2FD
102
{ACAD_XDICTIONARY
360
498
102
}
330
2EB
100
AcDbEntity
  8
Symbols(ISO)
 62
     7
100
AcDbText
 10
898.3402114597545
 20
203.5891030013645
 30
0.0
 40
13.75
  1
7612982005206
  7
Text Style38
100
AcDbAttribute
  2
EAN_001
 70
     0
  0
ATTRIB
  5
2FE
102
{ACAD_XDICTIONARY
360
49B
102
}
330
2EB
100
AcDbEntity
  8
Symbols(ISO)
 62
     7
100
AcDbText
 10
141.8594815655423
 20
206.4919849353177
 30
0.0
 40
11.00000016391277
  1
Marketing
  7
Text Style40
100
AcDbAttribute
  2
Departement_001
 70
     0
  0
ATTRIB
  5
2FF
102
{ACAD_XDICTIONARY
360
49E
102
}
330
2EB
100
AcDbEntity
  8
Symbols(ISO)
 62
     7
100
AcDbText
 10
141.8594815655423
 20
247.7419849353175
 30
0.0
 40
11.00000016391277
  1
Marketing
  7
Text Style40
100
AcDbAttribute
  2
Departement_001
 70
     0
  0
SEQEND
  5
2EC
330
2EB
100
AcDbEntity
  8
0
  0
INSERT
  5
307
330
77
100
AcDbEntity
  8
0
100
AcDbBlockReference
  2
Borders Planung Border
 10
0.0
 20
0.0
 30
0.0
 41
5.5
 42
5.5
 43
5.5
  0
ARC
  5
308
330
77
100
AcDbEntity
  8
MaSichtkante
100
AcDbCircle
 10
314.1386740711449
 20
970.3116803704677
 30
0.0
 40
21.55775532808727
100
AcDbArc
 50
47.79947451569063
 51
52.20052548430938
  0
ARC
  5
309
330
77
100
AcDbEntity
  8
MaSichtkante
100
AcDbCircle
 10
319.2809749486425
 20
976.4400359154256
 30
0.0
 40
1.749999999999996
100
AcDbArc
 50
139.9999999999966
 51
319.9999999999966
  0
LINE
  5
30A
330
77
100
AcDbEntity
  8
MaSichtkante
100
AcDbLine
 10
317.9403971731844
 20
977.5649142323773
 30
0.0
 11
325.6538484894228
 21
986.7574475498047
 31
0.0
  0
LINE
  5
30B
330
77
100
AcDbEntity
  8
MaSichtkante
100
AcDbLine
 10
328.3350040403393
 20
984.507690915902
 30
0.0
 11
320.6215527241008
 21
975.3151575984745
 31
0.0
  0
ARC
  5
30C
330
77
100
AcDbEntity
  8
MaSichtkante
100
AcDbCircle
 10
326.994426264881
 20
985.6325692328534
 30
0.0
 40
1.74999999999995
100
AcDbArc
 50
320.0000000000015
 51
21.77069474955262
  0
ARC
  5
30D
330
77
100
AcDbEntity
  8
MaSichtkante
100
AcDbCircle
 10
326.994426264881
 20
985.6325692328534
 30
0.0
 40
1.750000000000118
100
AcDbArc
 50
78.22930525045321
 51
139.9999999999996
  0
ARC
  5
30E
330
77
100
AcDbEntity
  8
MaSichtkante
100
AcDbCircle
 10
314.1386740711472
 20
970.3116803704658
 30
0.0
 40
21.55775532808785
100
AcDbArc
 50
67.29576678812252
 51
72.70423321188193
  0
ARC
  5
30F
330
77
100
AcDbEntity
  8
MaSichtkante
100
AcDbCircle
 10
320.7225618301694
 20
988.4007633206024
 30
0.0
 40
2.499999999999994
100
AcDbArc
 50
94.00649078440093
 51
45.99350921564639
  0
ARC
  5
310
330
77
100
AcDbEntity
  8
MaSichtkante
100
AcDbCircle
 10
314.1386740711496
 20
970.3116803704736
 30
0.0
 40
21.55775532807977
100
AcDbArc
 50
7.799474515689688
 51
12.20052548430979
  0
ARC
  5
311
330
77
100
AcDbEntity
  8
MaSichtkante
100
AcDbCircle
 10
322.0171360952479
 20
971.7008657918091
 30
0.0
 40
1.749999999999991
100
AcDbArc
 50
100.0000000000002
 51
280.0000000000003
  0
LINE
  5
312
330
77
100
AcDbEntity
  8
MaSichtkante
100
AcDbLine
 10
321.7132517843309
 20
973.4242793595807
 30
0.0
 11
333.5309448204773
 21
975.5080574915837
 31
0.0
  0
LINE
  5
313
330
77
100
AcDbEntity
  8
MaSichtkante
100
AcDbLine
 10
334.1387134423117
 20
972.0612303560413
 30
0.0
 11
322.3210204061651
 21
969.9774522240376
 31
0.0
  0
ARC
  5
314
330
77
100
AcDbEntity
  8
MaSichtkante
100
AcDbCircle
 10
333.8348291313944
 20
973.7846439238124
 30
0.0
 40
1.750000000000063
100
AcDbArc
 50
280.0000000000003
 51
341.7706947495469
  0
ARC
  5
315
330
77
100
AcDbEntity
  8
MaSichtkante
100
AcDbCircle
 10
333.8348291313945
 20
973.7846439238126
 30
0.0
 40
1.74999999999986
100
AcDbArc
 50
38.22930525044455
 51
100.0000000000029
  0
ARC
  5
316
330
77
100
AcDbEntity
  8
MaSichtkante
100
AcDbCircle
 10
314.1386740711451
 20
970.3116803704707
 30
0.0
 40
21.55775532808492
100
AcDbArc
 50
27.29576678812752
 51
32.70423321188471
  0
ARC
  5
317
330
77
100
AcDbEntity
  8
MaSichtkante
100
AcDbCircle
 10
330.8096630940008
 20
979.9366803704739
 30
0.0
 40
2.500000000000003
100
AcDbArc
 50
54.00649078442175
 51
5.993509215695063
  0
ARC
  5
318
330
77
100
AcDbEntity
  8
MaSichtkante
100
AcDbCircle
 10
314.1386740711499
 20
970.3116803704739
 30
0.0
 40
21.55775532807945
100
AcDbArc
 50
327.7994745156899
 51
332.2005254843101
  0
ARC
  5
319
330
77
100
AcDbEntity
  8
MaSichtkante
100
AcDbCircle
 10
321.0668773014258
 20
966.3116803704738
 30
0.0
 40
1.750000000000026
100
AcDbArc
 50
59.99999999999944
 51
239.9999999999995
  0
LINE
  5
31A
330
77
100
AcDbEntity
  8
MaSichtkante
100
AcDbLine
 10
321.9418773014258
 20
967.8272248270966
 30
0.0
 11
332.3341821468392
 21
961.8272248270963
 31
0.0
  0
LINE
  5
31B
330
77
100
AcDbEntity
  8
MaSichtkante
100
AcDbLine
 10
330.584182146839
 20
958.7961359138514
 30
0.0
 11
320.1918773014257
 21
964.7961359138513
 31
0.0
  0
ARC
  5
31C
330
77
100
AcDbEntity
  8
MaSichtkante
100
AcDbCircle
 10
331.459182146839
 20
960.311680370474
 30
0.0
 40
1.750000000000128
100
AcDbArc
 50
240.0000000000054
 51
301.7706947495506
  0
ARC
  5
31D
330
77
100
AcDbEntity
  8
MaSichtkante
100
AcDbCircle
 10
331.459182146839
 20
960.311680370474
 30
0.0
 40
1.750000000000034
100
AcDbArc
 50
358.2293052504514
 51
59.99999999999944
  0
ARC
  5
31E
330
77
100
AcDbEntity
  8
MaSichtkante
100
AcDbCircle
 10
314.1386740711502
 20
970.3116803704736
 30
0.0
 40
21.55775532807913
100
AcDbArc
 50
347.295766788127
 51
352.704233211883
  0
ARC
  5
31F
330
77
100
AcDbEntity
  8
MaSichtkante
100
AcDbCircle
 10
333.0962233166352
 20
966.9689529503855
 30
0.0
 40
2.499999999999983
100
AcDbArc
 50
14.00649078440347
 51
325.9935092156983
  0
ARC
  5
320
330
77
100
AcDbEntity
  8
MaSichtkante
100
AcDbCircle
 10
314.1386740711494
 20
970.3116803704773
 30
0.0
 40
21.55775532808258
100
AcDbArc
 50
287.799474515689
 51
292.2005254843098
  0
ARC
  5
321
330
77
100
AcDbEntity
  8
MaSichtkante
100
AcDbCircle
 10
316.8748352177556
 20
962.7941394041863
 30
0.0
 40
1.74999999999998
100
AcDbArc
 50
20.00000000000448
 51
200.0000000000045
  0
LINE
  5
322
330
77
100
AcDbEntity
  8
MaSichtkante
100
AcDbLine
 10
318.519297304131
 20
963.3926746550065
 30
0.0
 11
322.623539024039
 21
952.1163632055756
 31
0.0
  0
LINE
  5
323
330
77
100
AcDbEntity
  8
MaSichtkante
100
AcDbLine
 10
319.3346148512883
 20
950.9192927039357
 30
0.0
 11
315.2303731313803
 21
962.1956041533668
 31
0.0
  0
ARC
  5
324
330
77
100
AcDbEntity
  8
MaSichtkante
100
AcDbCircle
 10
320.9790769376636
 20
951.5178279547555
 30
0.0
 40
1.749999999999999
100
AcDbArc
 50
199.9999999999974
 51
261.7706947495437
  0
ARC
  5
325
330
77
100
AcDbEntity
  8
MaSichtkante
100
AcDbCircle
 10
320.9790769376637
 20
951.5178279547555
 30
0.0
 40
1.749999999999995
100
AcDbArc
 50
318.2293052504594
 51
20.00000000000393
  0
ARC
  5
326
330
77
100
AcDbEntity
  8
MaSichtkante
100
AcDbCircle
 10
314.1386740711459
 20
970.3116803704793
 30
0.0
 40
21.55775532808601
100
AcDbArc
 50
307.2957667881192
 51
312.7042332118818
  0
ARC
  5
327
330
77
100
AcDbEntity
  8
MaSichtkante
100
AcDbCircle
 10
326.5123355576162
 20
955.5653248404334
 30
0.0
 40
2.49999999999998
100
AcDbArc
 50
334.0064907844003
 51
285.9935092156201
  0
ARC
  5
328
330
77
100
AcDbEntity
  8
MaSichtkante
100
AcDbCircle
 10
314.1386740711511
 20
970.3116803704766
 30
0.0
 40
21.55775532808211
100
AcDbArc
 50
247.7994745156904
 51
252.2005254843108
  0
ARC
  5
329
330
77
100
AcDbEntity
  8
MaSichtkante
100
AcDbCircle
 10
311.4025129245448
 20
962.7941394041863
 30
0.0
 40
1.749999999999985
100
AcDbArc
 50
340.0000000000026
 51
160.0000000000026
  0
LINE
  5
32A
330
77
100
AcDbEntity
  8
MaSichtkante
100
AcDbLine
 10
313.0469750109202
 20
962.1956041533668
 30
0.0
 11
308.9427332910123
 21
950.9192927039357
 31
0.0
  0
LINE
  5
32B
330
77
100
AcDbEntity
  8
MaSichtkante
100
AcDbLine
 10
305.6538091182616
 20
952.1163632055756
 30
0.0
 11
309.7580508381696
 21
963.3926746550065
 31
0.0
  0
ARC
  5
32C
330
77
100
AcDbEntity
  8
MaSichtkante
100
AcDbCircle
 10
307.298271204637
 20
951.5178279547555
 30
0.0
 40
1.750000000000031
100
AcDbArc
 50
160.0000000000026
 51
221.7706947495475
  0
ARC
  5
32D
330
77
100
AcDbEntity
  8
MaSichtkante
100
AcDbCircle
 10
307.2982712046369
 20
951.5178279547555
 30
0.0
 40
1.749999999999975
100
AcDbArc
 50
278.2293052504509
 51
339.9999999999956
  0
ARC
  5
32E
330
77
100
AcDbEntity
  8
MaSichtkante
100
AcDbCircle
 10
314.1386740711503
 20
970.3116803704981
 30
0.0
 40
21.55775532810307
100
AcDbArc
 50
267.2957667881196
 51
272.7042332118803
  0
ARC
  5
32F
330
77
100
AcDbEntity
  8
MaSichtkante
100
AcDbCircle
 10
314.1386740711503
 20
951.0616803704738
 30
0.0
 40
2.500000000000029
100
AcDbArc
 50
294.0064907843996
 51
245.9935092155972
  0
ARC
  5
330
330
77
100
AcDbEntity
  8
MaSichtkante
100
AcDbCircle
 10
314.1386740711489
 20
970.311680370473
 30
0.0
 40
21.55775532807759
100
AcDbArc
 50
207.7994745156896
 51
212.2005254843101
  0
ARC
  5
331
330
77
100
AcDbEntity
  8
MaSichtkante
100
AcDbCircle
 10
307.2104708408748
 20
966.3116803704738
 30
0.0
 40
1.75
100
AcDbArc
 50
299.9999999999992
 51
119.9999999999991
  0
LINE
  5
332
330
77
100
AcDbEntity
  8
MaSichtkante
100
AcDbLine
 10
308.0854708408748
 20
964.7961359138506
 30
0.0
 11
297.6931659954615
 21
958.7961359138514
 31
0.0
  0
LINE
  5
333
330
77
100
AcDbEntity
  8
MaSichtkante
100
AcDbLine
 10
295.9431659954615
 20
961.8272248270963
 30
0.0
 11
306.3354708408748
 21
967.8272248270966
 31
0.0
  0
ARC
  5
334
330
77
100
AcDbEntity
  8
MaSichtkante
100
AcDbCircle
 10
296.8181659954616
 20
960.3116803704738
 30
0.0
 40
1.750000000000065
100
AcDbArc
 50
120.0000000000019
 51
181.7706947495486
  0
ARC
  5
335
330
77
100
AcDbEntity
  8
MaSichtkante
100
AcDbCircle
 10
296.8181659954615
 20
960.3116803704738
 30
0.0
 40
1.749999999999884
100
AcDbArc
 50
238.2293052504461
 51
300.0000000000023
  0
ARC
  5
336
330
77
100
AcDbEntity
  8
MaSichtkante
100
AcDbCircle
 10
314.1386740711546
 20
970.3116803704793
 30
0.0
 40
21.55775532808586
100
AcDbArc
 50
227.2957667881168
 51
232.7042332118827
  0
ARC
  5
337
330
77
100
AcDbEntity
  8
MaSichtkante
100
AcDbCircle
 10
301.7650125846844
 20
955.5653248404334
 30
0.0
 40
2.5
100
AcDbArc
 50
254.0064907844006
 51
205.9935092155952
  0
ARC
  5
338
330
77
100
AcDbEntity
  8
MaSichtkante
100
AcDbCircle
 10
314.1386740711504
 20
970.3116803704736
 30
0.0
 40
21.55775532807926
100
AcDbArc
 50
167.7994745156899
 51
172.2005254843106
  0
ARC
  5
339
330
77
100
AcDbEntity
  8
MaSichtkante
100
AcDbCircle
 10
306.2602120470526
 20
971.7008657918094
 30
0.0
 40
1.749999999999985
100
AcDbArc
 50
260.0000000000028
 51
80.00000000000284
  0
LINE
  5
33A
330
77
100
AcDbEntity
  8
MaSichtkante
100
AcDbLine
 10
305.9563277361355
 20
969.9774522240376
 30
0.0
 11
294.1386346999891
 21
972.0612303560413
 31
0.0
  0
LINE
  5
33B
330
77
100
AcDbEntity
  8
MaSichtkante
100
AcDbLine
 10
294.7464033218233
 20
975.5080574915837
 30
0.0
 11
306.5640963579697
 21
973.4242793595807
 31
0.0
  0
ARC
  5
33C
330
77
100
AcDbEntity
  8
MaSichtkante
100
AcDbCircle
 10
294.442519010906
 20
973.7846439238126
 30
0.0
 40
1.749999999999889
100
AcDbArc
 50
79.99999999999973
 51
141.7706947495564
  0
ARC
  5
33D
330
77
100
AcDbEntity
  8
MaSichtkante
100
AcDbCircle
 10
294.4425190109062
 20
973.7846439238124
 30
0.0
 40
1.750000000000025
100
AcDbArc
 50
198.229305250447
 51
259.9999999999997
  0
ARC
  5
33E
330
77
100
AcDbEntity
  8
MaSichtkante
100
AcDbCircle
 10
314.1386740711555
 20
970.3116803704746
 30
0.0
 40
21.55775532808447
100
AcDbArc
 50
187.295766788125
 51
192.7042332118825
  0
ARC
  5
33F
330
77
100
AcDbEntity
  8
MaSichtkante
100
AcDbCircle
 10
295.1811248256653
 20
966.9689529503855
 30
0.0
 40
2.5
100
AcDbArc
 50
214.0064907843985
 51
165.9935092156704
  0
ARC
  5
340
330
77
100
AcDbEntity
  8
MaSichtkante
100
AcDbCircle
 10
314.1386740711543
 20
970.3116803704691
 30
0.0
 40
21.55775532808511
100
AcDbArc
 50
127.7994745156906
 51
132.2005254843103
  0
ARC
  5
341
330
77
100
AcDbEntity
  8
MaSichtkante
100
AcDbCircle
 10
308.9963731936578
 20
976.4400359154256
 30
0.0
 40
1.750000000000003
100
AcDbArc
 50
219.9999999999954
 51
39.99999999999547
  0
LINE
  5
342
330
77
100
AcDbEntity
  8
MaSichtkante
100
AcDbLine
 10
307.6557954181997
 20
975.3151575984745
 30
0.0
 11
299.9423441019612
 21
984.507690915902
 31
0.0
  0
LINE
  5
343
330
77
100
AcDbEntity
  8
MaSichtkante
100
AcDbLine
 10
302.6234996528777
 20
986.7574475498047
 30
0.0
 11
310.3369509691161
 21
977.5649142323773
 31
0.0
  0
ARC
  5
344
330
77
100
AcDbEntity
  8
MaSichtkante
100
AcDbCircle
 10
301.2829218774194
 20
985.6325692328534
 30
0.0
 40
1.749999999999996
100
AcDbArc
 50
39.99999999999647
 51
101.7706947495465
  0
ARC
  5
345
330
77
100
AcDbEntity
  8
MaSichtkante
100
AcDbCircle
 10
301.2829218774196
 20
985.6325692328534
 30
0.0
 40
1.750000000000089
100
AcDbArc
 50
158.2293052504557
 51
220.0000000000003
  0
ARC
  5
346
330
77
100
AcDbEntity
  8
MaSichtkante
100
AcDbCircle
 10
314.1386740711466
 20
970.3116803704761
 30
0.0
 40
21.55775532807497
100
AcDbArc
 50
147.295766788118
 51
152.704233211878
  0
ARC
  5
347
330
77
100
AcDbEntity
  8
MaSichtkante
100
AcDbCircle
 10
297.4676850482998
 20
979.9366803704739
 30
0.0
 40
2.50000000000001
100
AcDbArc
 50
174.0064907843501
 51
125.9935092156195
  0
ARC
  5
348
330
77
100
AcDbEntity
  8
MaSichtkante
100
AcDbCircle
 10
314.1386740711503
 20
978.3116803704738
 30
0.0
 40
1.749999999999998
100
AcDbArc
 50
180.0
 51
0.0
  0
LINE
  5
349
330
77
100
AcDbEntity
  8
MaSichtkante
100
AcDbLine
 10
312.3886740711502
 20
978.3116803704739
 30
0.0
 11
312.3886740711502
 21
990.3116803704739
 31
0.0
  0
LINE
  5
34A
330
77
100
AcDbEntity
  8
MaSichtkante
100
AcDbLine
 10
315.8886740711503
 20
990.3116803704739
 30
0.0
 11
315.8886740711503
 21
978.3116803704739
 31
0.0
  0
ARC
  5
34B
330
77
100
AcDbEntity
  8
MaSichtkante
100
AcDbCircle
 10
314.1386740711502
 20
990.3116803704739
 30
0.0
 40
1.750000000000031
100
AcDbArc
 50
0.0
 51
61.77069474954951
  0
ARC
  5
34C
330
77
100
AcDbEntity
  8
MaSichtkante
100
AcDbCircle
 10
314.1386740711503
 20
990.3116803704739
 30
0.0
 40
1.750000000000034
100
AcDbArc
 50
118.2293052503874
 51
180.0
  0
ARC
  5
34D
330
77
100
AcDbEntity
  8
MaSichtkante
100
AcDbCircle
 10
314.1386740711502
 20
970.3116803704492
 30
0.0
 40
21.55775532810374
100
AcDbArc
 50
87.7994745156921
 51
92.20052548430279
  0
ARC
  5
34E
330
77
100
AcDbEntity
  8
MaSichtkante
100
AcDbCircle
 10
307.5547863121311
 20
988.4007633206024
 30
0.0
 40
2.499999999999981
100
AcDbArc
 50
134.0064907843528
 51
85.99350921569797
  0
ARC
  5
34F
330
77
100
AcDbEntity
  8
MaSichtkante
100
AcDbCircle
 10
314.1386740711529
 20
970.3116803704659
 30
0.0
 40
21.55775532808748
100
AcDbArc
 50
107.2957667881278
 51
112.7042332118763
  0
ARC
  5
350
330
77
100
AcDbEntity
  8
MaSichtkante
100
AcDbCircle
 10
314.1386740711494
 20
970.3116803704725
 30
0.0
 40
21.55775532808096
100
AcDbArc
 50
52.20052548431098
 51
67.2957667881211
  0
ARC
  5
351
330
77
100
AcDbEntity
  8
MaSichtkante
100
AcDbCircle
 10
314.13867407115
 20
970.3116803704725
 30
0.0
 40
21.55775532808049
100
AcDbArc
 50
72.70423321188395
 51
87.79947451568947
  0
ARC
  5
352
330
77
100
AcDbEntity
  8
MaSichtkante
100
AcDbCircle
 10
314.1386740711503
 20
970.3116803704736
 30
0.0
 40
21.55775532807933
100
AcDbArc
 50
92.20052548430595
 51
107.2957667881273
  0
ARC
  5
353
330
77
100
AcDbEntity
  8
MaSichtkante
100
AcDbCircle
 10
314.1386740711503
 20
970.3116803704739
 30
0.0
 40
21.55775532807902
100
AcDbArc
 50
112.704233211878
 51
127.7994745156898
  0
ARC
  5
354
330
77
100
AcDbEntity
  8
MaSichtkante
100
AcDbCircle
 10
314.1386740711502
 20
970.3116803704739
 30
0.0
 40
21.55775532807897
100
AcDbArc
 50
132.2005254843104
 51
147.2957667881187
  0
ARC
  5
355
330
77
100
AcDbEntity
  8
MaSichtkante
100
AcDbCircle
 10
314.138674071151
 20
970.3116803704736
 30
0.0
 40
21.55775532807991
100
AcDbArc
 50
152.7042332118784
 51
167.7994745156898
  0
ARC
  5
356
330
77
100
AcDbEntity
  8
MaSichtkante
100
AcDbCircle
 10
314.1386740711503
 20
970.3116803704736
 30
0.0
 40
21.55775532807908
100
AcDbArc
 50
172.20052548431
 51
187.2957667881242
  0
ARC
  5
357
330
77
100
AcDbEntity
  8
MaSichtkante
100
AcDbCircle
 10
314.1386740711508
 20
970.3116803704739
 30
0.0
 40
21.55775532807966
100
AcDbArc
 50
192.7042332118833
 51
207.7994745156897
  0
ARC
  5
358
330
77
100
AcDbEntity
  8
MaSichtkante
100
AcDbCircle
 10
314.1386740711494
 20
970.311680370473
 30
0.0
 40
21.55775532807803
100
AcDbArc
 50
212.2005254843099
 51
227.2957667881166
  0
ARC
  5
359
330
77
100
AcDbEntity
  8
MaSichtkante
100
AcDbCircle
 10
314.1386740711502
 20
970.3116803704734
 30
0.0
 40
21.55775532807874
100
AcDbArc
 50
232.7042332118832
 51
247.7994745156898
  0
ARC
  5
35A
330
77
100
AcDbEntity
  8
MaSichtkante
100
AcDbCircle
 10
314.1386740711506
 20
970.3116803704757
 30
0.0
 40
21.5577553280808
100
AcDbArc
 50
252.2005254843112
 51
267.2957667881158
  0
ARC
  5
35B
330
77
100
AcDbEntity
  8
MaSichtkante
100
AcDbCircle
 10
314.13867407115
 20
970.3116803704746
 30
0.0
 40
21.55775532808005
100
AcDbArc
 50
272.7042332118839
 51
287.7994745156893
  0
ARC
  5
35C
330
77
100
AcDbEntity
  8
MaSichtkante
100
AcDbCircle
 10
314.1386740711502
 20
970.3116803704736
 30
0.0
 40
21.55775532807912
100
AcDbArc
 50
292.2005254843109
 51
307.2957667881188
  0
ARC
  5
35D
330
77
100
AcDbEntity
  8
MaSichtkante
100
AcDbCircle
 10
314.1386740711503
 20
970.3116803704736
 30
0.0
 40
21.55775532807899
100
AcDbArc
 50
312.7042332118832
 51
327.7994745156899
  0
ARC
  5
35E
330
77
100
AcDbEntity
  8
MaSichtkante
100
AcDbCircle
 10
314.1386740711506
 20
970.3116803704736
 30
0.0
 40
21.55775532807879
100
AcDbArc
 50
332.2005254843102
 51
347.2957667881274
  0
ARC
  5
35F
330
77
100
AcDbEntity
  8
MaSichtkante
100
AcDbCircle
 10
314.1386740711494
 20
970.3116803704736
 30
0.0
 40
21.55775532807997
100
AcDbArc
 50
352.7042332118833
 51
0.0
  0
ARC
  5
360
330
77
100
AcDbEntity
  8
MaSichtkante
100
AcDbCircle
 10
314.1386740711517
 20
970.3116803704739
 30
0.0
 40
21.55775532807764
100
AcDbArc
 50
0.0
 51
7.799474515689473
  0
ARC
  5
361
330
77
100
AcDbEntity
  8
MaSichtkante
100
AcDbCircle
 10
314.1386740711494
 20
970.3116803704734
 30
0.0
 40
21.55775532808009
100
AcDbArc
 50
12.20052548431066
 51
27.29576678812657
  0
ARC
  5
362
330
77
100
AcDbEntity
  8
MaSichtkante
100
AcDbCircle
 10
314.1386740711507
 20
970.3116803704743
 30
0.0
 40
21.55775532807859
100
AcDbArc
 50
32.70423321188565
 51
47.79947451569014
  0
LINE
  5
363
330
77
100
AcDbEntity
  8
MaSichtkante
100
AcDbLine
 10
84.13867407115025
 20
1185.311680370474
 30
0.0
 11
96.63867407115022
 21
1185.311680370474
 31
0.0
  0
LINE
  5
364
330
77
100
AcDbEntity
  8
MaSichtkante
100
AcDbLine
 10
531.6386740711504
 20
1185.311680370474
 30
0.0
 11
544.1386740711502
 21
1185.311680370474
 31
0.0
  0
ARC
  5
365
330
77
100
AcDbEntity
  8
MaSichtkante dünnFliese
100
AcDbCircle
 10
314.1386740711503
 20
925.311680370474
 30
0.0
 40
217.5
100
AcDbArc
 50
180.0
 51
0.0
  0
ARC
  5
366
330
77
100
AcDbEntity
  8
MaSichtkante
100
AcDbCircle
 10
314.1386740711503
 20
925.311680370474
 30
0.0
 40
230.0
100
AcDbArc
 50
180.0
 51
0.0
  0
LINE
  5
367
330
77
100
AcDbEntity
  8
MaSichtkante dünnFliese
100
AcDbLine
 10
531.6386740711502
 20
1185.311680370474
 30
0.0
 11
531.6386740711504
 21
925.311680370474
 31
0.0
  0
LINE
  5
368
330
77
100
AcDbEntity
  8
MaSichtkante
100
AcDbLine
 10
544.1386740711504
 20
925.311680370474
 30
0.0
 11
544.1386740711501
 21
1185.311680370474
 31
0.0
  0
LINE
  5
369
330
77
100
AcDbEntity
  8
MaSichtkante
100
AcDbLine
 10
84.13867407115025
 20
1185.311680370474
 30
0.0
 11
84.1386740711502
 21
925.311680370474
 31
0.0
  0
LINE
  5
36A
330
77
100
AcDbEntity
  8
MaSichtkante dünnFliese
100
AcDbLine
 10
96.63867407115022
 20
925.311680370474
 30
0.0
 11
96.63867407115022
 21
1185.311680370474
 31
0.0
  0
ARC
  5
36B
330
77
100
AcDbEntity
  8
MaSichtkante dünnFliese
100
AcDbCircle
 10
419.1386740711505
 20
965.3116803704742
 30
0.0
 40
110.4887453897159
100
AcDbArc
 50
0.0
 51
90.00000000000005
  0
LINE
  5
36C
330
77
100
AcDbEntity
  8
MaSichtkante dünnFliese
100
AcDbLine
 10
529.6274194608663
 20
925.311680370474
 30
0.0
 11
529.6274194608663
 21
965.3116803704742
 31
0.0
  0
ARC
  5
36D
330
77
100
AcDbEntity
  8
MaSichtkante dünnFliese
100
AcDbCircle
 10
314.1386740711503
 20
925.311680370474
 30
0.0
 40
215.4887453897161
100
AcDbArc
 50
180.0
 51
0.0
  0
LINE
  5
36E
330
77
100
AcDbEntity
  8
MaSichtkante dünnFliese
100
AcDbLine
 10
98.64992868143414
 20
965.3116803704739
 30
0.0
 11
98.64992868143422
 21
925.311680370474
 31
0.0
  0
ARC
  5
36F
330
77
100
AcDbEntity
  8
MaSichtkante dünnFliese
100
AcDbCircle
 10
209.1386740711501
 20
965.3116803704739
 30
0.0
 40
110.488745389716
100
AcDbArc
 50
90.0
 51
180.0
  0
LINE
  5
370
330
77
100
AcDbEntity
  8
MaSichtkante dünnFliese
100
AcDbLine
 10
419.1386740711504
 20
1075.80042576019
 30
0.0
 11
209.1386740711501
 21
1075.80042576019
 31
0.0
  0
LINE
  5
371
330
77
100
AcDbEntity
  8
MaSichtkante
100
AcDbLine
 10
96.63867407115022
 20
1185.311680370474
 30
0.0
 11
531.6386740711502
 21
1185.311680370474
 31
0.0
  0
LINE
  5
372
330
77
100
AcDbEntity
  8
MaSichtkante
100
AcDbLine
 10
547.3386740711503
 20
1169.867798999288
 30
0.0
 11
547.3386740711503
 21
1160.755561741659
 31
0.0
  0
LINE
  5
373
330
77
100
AcDbEntity
  8
MaSichtkante dünnFliese
100
AcDbLine
 10
544.6386740711502
 20
1170.561680370474
 30
0.0
 11
544.6386740711502
 21
1160.061680370474
 31
0.0
  0
LINE
  5
374
330
77
100
AcDbEntity
  8
MaSichtkante
100
AcDbLine
 10
544.1386740711502
 20
1170.561680370474
 30
0.0
 11
544.6386740711502
 21
1170.561680370474
 31
0.0
  0
LINE
  5
375
330
77
100
AcDbEntity
  8
MaSichtkante
100
AcDbLine
 10
544.1386740711502
 20
1160.061680370474
 30
0.0
 11
544.6386740711502
 21
1160.061680370474
 31
0.0
  0
ARC
  5
376
330
77
100
AcDbEntity
  8
MaSichtkante
100
AcDbCircle
 10
544.6386740711502
 20
1165.661680370474
 30
0.0
 40
5.600000000000001
100
AcDbArc
 50
270.0000000000009
 51
298.8254491604129
  0
ARC
  5
377
330
77
100
AcDbEntity
  8
MaSichtkante
100
AcDbCircle
 10
544.6386740711502
 20
1164.961680370474
 30
0.0
 40
5.599999999999999
100
AcDbArc
 50
61.17455083958714
 51
90.0
  0
LINE
  5
378
330
77
100
AcDbEntity
  8
MaSichtkante
100
AcDbLine
 10
80.93867407115029
 20
1160.755561741659
 30
0.0
 11
80.93867407115029
 21
1169.867798999288
 31
0.0
  0
LINE
  5
379
330
77
100
AcDbEntity
  8
MaSichtkante dünnFliese
100
AcDbLine
 10
83.63867407115026
 20
1160.061680370474
 30
0.0
 11
83.63867407115026
 21
1170.561680370474
 31
0.0
  0
LINE
  5
37A
330
77
100
AcDbEntity
  8
MaSichtkante
100
AcDbLine
 10
84.13867407115025
 20
1160.061680370474
 30
0.0
 11
83.63867407115026
 21
1160.061680370474
 31
0.0
  0
LINE
  5
37B
330
77
100
AcDbEntity
  8
MaSichtkante
100
AcDbLine
 10
84.13867407115025
 20
1170.561680370474
 30
0.0
 11
83.63867407115026
 21
1170.561680370474
 31
0.0
  0
ARC
  5
37C
330
77
100
AcDbEntity
  8
MaSichtkante
100
AcDbCircle
 10
83.63867407115026
 20
1164.961680370474
 30
0.0
 40
5.600000000000001
100
AcDbArc
 50
90.00000000000023
 51
118.8254491604132
  0
ARC
  5
37D
330
77
100
AcDbEntity
  8
MaSichtkante
100
AcDbCircle
 10
83.63867407115026
 20
1165.661680370474
 30
0.0
 40
5.600000000000001
100
AcDbArc
 50
241.174550839587
 51
270.0
  0
ARC
  5
37E
330
77
100
AcDbEntity
  8
MaSichtkante
100
AcDbCircle
 10
314.1386740711502
 20
970.3116803704736
 30
0.0
 40
13.35000000000005
100
AcDbArc
 50
322.4676391765324
 51
337.532360823467
  0
ARC
  5
37F
330
77
100
AcDbEntity
  8
MaSichtkante
100
AcDbCircle
 10
314.1386740711503
 20
970.3116803704736
 30
0.0
 40
13.34999999999998
100
AcDbArc
 50
282.4676391765322
 51
297.5323608234664
  0
ARC
  5
380
330
77
100
AcDbEntity
  8
MaSichtkante
100
AcDbCircle
 10
314.1386740711503
 20
970.3116803704736
 30
0.0
 40
13.35000000000004
100
AcDbArc
 50
242.4676391765334
 51
257.5323608234679
  0
ARC
  5
381
330
77
100
AcDbEntity
  8
MaSichtkante
100
AcDbCircle
 10
314.1386740711502
 20
970.3116803704736
 30
0.0
 40
13.34999999999996
100
AcDbArc
 50
202.4676391765339
 51
217.5323608234679
  0
ARC
  5
382
330
77
100
AcDbEntity
  8
MaSichtkante
100
AcDbCircle
 10
314.1386740711498
 20
970.3116803704736
 30
0.0
 40
13.34999999999959
100
AcDbArc
 50
162.4676391765324
 51
170.2970967705815
  0
ARC
  5
383
330
77
100
AcDbEntity
  8
MaSichtkante
100
AcDbCircle
 10
314.1386740711503
 20
970.3116803704736
 30
0.0
 40
13.35
100
AcDbArc
 50
122.467639176533
 51
137.5323608234672
  0
ARC
  5
384
330
77
100
AcDbEntity
  8
MaSichtkante
100
AcDbCircle
 10
314.1386740711503
 20
970.3116803704736
 30
0.0
 40
13.35000000000005
100
AcDbArc
 50
82.4676391765328
 51
97.5323608234672
  0
ARC
  5
385
330
77
100
AcDbEntity
  8
MaSichtkante
100
AcDbCircle
 10
314.1386740711502
 20
970.3116803704736
 30
0.0
 40
13.35000000000005
100
AcDbArc
 50
42.46763917653264
 51
57.53236082346678
  0
ARC
  5
386
330
77
100
AcDbEntity
  8
MaSichtkante
100
AcDbCircle
 10
314.138674071151
 20
970.3116803704739
 30
0.0
 40
13.34999999999922
100
AcDbArc
 50
9.702903229417957
 51
17.53236082346717
  0
SPLINE
  5
387
330
77
100
AcDbEntity
  8
MaSichtkante
100
AcDbSpline
210
0.0
220
0.0
230
1.0
 70
    24
 71
     3
 72
     8
 73
     4
 74
     0
 42
0.000000001
 43
0.0000000001
 40
0.0073870988382799
 40
0.0073870988382799
 40
0.0073870988382799
 40
0.0073870988382799
 40
0.0188953365547159
 40
0.0188953365547159
 40
0.0188953365547159
 40
0.0188953365547159
 10
296.2798527214642
 20
972.5616803704738
 30
0.0
 10
300.1144847929765
 20
972.5616803704738
 30
0.0
 10
303.9490756559641
 20
972.5616803704738
 30
0.0
 10
307.7838566078144
 20
972.5616803704738
 30
0.0
  0
ARC
  5
388
330
77
100
AcDbEntity
  8
MaSichtkante
100
AcDbCircle
 10
314.1386740711505
 20
970.3116803704736
 30
0.0
 40
18.00000000000026
100
AcDbArc
 50
164.4207640323547
 51
172.8192442185427
  0
ARC
  5
389
330
77
100
AcDbEntity
  8
MaSichtkante
100
AcDbCircle
 10
314.1386740711504
 20
970.3116803704736
 30
0.0
 40
18.00000000000016
100
AcDbArc
 50
143.3321356308835
 51
156.6678643691171
  0
ARC
  5
38A
330
77
100
AcDbEntity
  8
MaSichtkante
100
AcDbCircle
 10
314.1386740711507
 20
970.3116803704734
 30
0.0
 40
18.0000000000006
100
AcDbArc
 50
124.4207640323542
 51
135.5792359676462
  0
ARC
  5
38B
330
77
100
AcDbEntity
  8
MaSichtkante
100
AcDbCircle
 10
314.1386740711503
 20
970.3116803704736
 30
0.0
 40
18.00000000000012
100
AcDbArc
 50
103.3321356308832
 51
116.6678643691172
  0
ARC
  5
38C
330
77
100
AcDbEntity
  8
MaSichtkante
100
AcDbCircle
 10
314.1386740711503
 20
970.3116803704736
 30
0.0
 40
17.99999999999996
100
AcDbArc
 50
84.4207640323537
 51
95.57923596764608
  0
ARC
  5
38D
330
77
100
AcDbEntity
  8
MaSichtkante
100
AcDbCircle
 10
314.1386740711503
 20
970.3116803704736
 30
0.0
 40
17.99999999999999
100
AcDbArc
 50
63.3321356308829
 51
76.66786436911661
  0
ARC
  5
38E
330
77
100
AcDbEntity
  8
MaSichtkante
100
AcDbCircle
 10
314.1386740711504
 20
970.3116803704739
 30
0.0
 40
17.99999999999977
100
AcDbArc
 50
44.42076403235375
 51
55.57923596764617
  0
ARC
  5
38F
330
77
100
AcDbEntity
  8
MaSichtkante
100
AcDbCircle
 10
314.13867407115
 20
970.3116803704736
 30
0.0
 40
18.00000000000023
100
AcDbArc
 50
23.33213563088271
 51
36.66786436911625
  0
ARC
  5
390
330
77
100
AcDbEntity
  8
MaSichtkante
100
AcDbCircle
 10
314.1386740711506
 20
970.3116803704736
 30
0.0
 40
17.99999999999964
100
AcDbArc
 50
7.180755781458106
 51
15.5792359676459
  0
ARC
  5
391
330
77
100
AcDbEntity
  8
MaSichtkante
100
AcDbCircle
 10
314.1386740711508
 20
970.3116803704736
 30
0.0
 40
17.00000000000066
100
AcDbArc
 50
164.0914381540238
 51
172.3944189775883
  0
ARC
  5
392
330
77
100
AcDbEntity
  8
MaSichtkante
100
AcDbCircle
 10
314.1386740711508
 20
970.3116803704736
 30
0.0
 40
17.00000000000059
100
AcDbArc
 50
146.548043615577
 51
153.4519563844231
  0
ARC
  5
393
330
77
100
AcDbEntity
  8
MaSichtkante
100
AcDbCircle
 10
314.1386740711503
 20
970.3116803704736
 30
0.0
 40
17.00000000000008
100
AcDbArc
 50
124.0914381540234
 51
135.9085618459767
  0
ARC
  5
394
330
77
100
AcDbEntity
  8
MaSichtkante
100
AcDbCircle
 10
314.1386740711503
 20
970.3116803704736
 30
0.0
 40
17.00000000000003
100
AcDbArc
 50
106.5480436155767
 51
113.4519563844235
  0
ARC
  5
395
330
77
100
AcDbEntity
  8
MaSichtkante
100
AcDbCircle
 10
314.1386740711503
 20
970.3116803704736
 30
0.0
 40
17.00000000000002
100
AcDbArc
 50
84.0914381540235
 51
95.9085618459764
  0
ARC
  5
396
330
77
100
AcDbEntity
  8
MaSichtkante
100
AcDbCircle
 10
314.1386740711503
 20
970.3116803704739
 30
0.0
 40
16.99999999999981
100
AcDbArc
 50
66.54804361557681
 51
73.4519563844231
  0
ARC
  5
397
330
77
100
AcDbEntity
  8
MaSichtkante
100
AcDbCircle
 10
314.1386740711502
 20
970.3116803704736
 30
0.0
 40
17.00000000000017
100
AcDbArc
 50
44.09143815402353
 51
55.9085618459764
  0
ARC
  5
398
330
77
100
AcDbEntity
  8
MaSichtkante
100
AcDbCircle
 10
314.1386740711498
 20
970.3116803704736
 30
0.0
 40
17.00000000000053
100
AcDbArc
 50
26.54804361557707
 51
33.45195638442311
  0
ARC
  5
399
330
77
100
AcDbEntity
  8
MaSichtkante
100
AcDbCircle
 10
314.1386740711498
 20
970.3116803704736
 30
0.0
 40
17.00000000000047
100
AcDbArc
 50
7.605581022411718
 51
15.90856184597632
  0
ARC
  5
39A
330
77
100
AcDbEntity
  8
MaSichtkante
100
AcDbCircle
 10
314.1386740711505
 20
970.3116803704736
 30
0.0
 40
18.00000000000023
100
AcDbArc
 50
183.3321356308832
 51
187.1807557814585
  0
ARC
  5
39B
330
77
100
AcDbEntity
  8
MaSichtkante
100
AcDbCircle
 10
314.1386740711513
 20
970.3116803704736
 30
0.0
 40
18.00000000000103
100
AcDbArc
 50
172.8192442185425
 51
175.5792359676465
  0
SPLINE
  5
39C
330
77
100
AcDbEntity
  8
MaSichtkante
100
AcDbSpline
210
0.0
220
0.0
230
1.0
 70
    24
 71
     3
 72
     8
 73
     4
 74
     0
 42
0.000000001
 43
0.0000000001
 40
0.0185356083885255
 40
0.0185356083885255
 40
0.0185356083885255
 40
0.0185356083885255
 40
0.0196858075532093
 40
0.0196858075532093
 40
0.0196858075532093
 40
0.0196858075532093
 10
297.4296665231437
 20
968.0616803704738
 30
0.0
 10
297.0463954840952
 20
968.0616803704738
 30
0.0
 10
296.6631242911859
 20
968.0616803704738
 30
0.0
 10
296.2798527214642
 20
968.0616803704738
 30
0.0
  0
SPLINE
  5
39D
330
77
100
AcDbEntity
  8
MaSichtkante
100
AcDbSpline
210
0.0
220
0.0
230
1.0
 70
    24
 71
     3
 72
     8
 73
     4
 74
     0
 42
0.000000001
 43
0.0000000001
 40
0.0073870988382798
 40
0.0073870988382798
 40
0.0073870988382798
 40
0.0073870988382798
 40
0.008537347577284
 40
0.008537347577284
 40
0.008537347577284
 40
0.008537347577284
 10
331.9974954208362
 20
968.0616803704738
 30
0.0
 10
331.6142238189208
 20
968.0616803704738
 30
0.0
 10
331.230952628679
 20
968.0616803704738
 30
0.0
 10
330.8476816191597
 20
968.0616803704738
 30
0.0
  0
ARC
  5
39E
330
77
100
AcDbEntity
  8
MaSichtkante
100
AcDbCircle
 10
314.1386740711468
 20
970.3116803704734
 30
0.0
 40
18.00000000000349
100
AcDbArc
 50
4.420764032354144
 51
7.180755781457801
  0
ARC
  5
39F
330
77
100
AcDbEntity
  8
MaSichtkante
100
AcDbCircle
 10
314.1386740711535
 20
970.3116803704734
 30
0.0
 40
17.99999999999677
100
AcDbArc
 50
352.8192442185415
 51
356.6678643691172
  0
SPLINE
  5
3A0
330
77
100
AcDbEntity
  8
MaSichtkante
100
AcDbSpline
210
0.0
220
0.0
230
1.0
 70
    24
 71
     3
 72
     8
 73
     4
 74
     0
 42
0.000000001
 43
0.0000000001
 40
0.0081780673196842
 40
0.0081780673196842
 40
0.0081780673196842
 40
0.0081780673196842
 40
0.0196858075532093
 40
0.0196858075532093
 40
0.0196858075532093
 40
0.0196858075532093
 10
320.4934915344835
 20
972.5616803704738
 30
0.0
 10
324.3282706351898
 20
972.5616803704738
 30
0.0
 10
328.1628641685474
 20
972.5616803704738
 30
0.0
 10
331.9974954208362
 20
972.5616803704738
 30
0.0
  0
ARC
  5
3A1
330
77
100
AcDbEntity
  8
MaSichtkante
100
AcDbCircle
 10
314.1386740711494
 20
970.3116803704739
 30
0.0
 40
17.00000000000097
100
AcDbArc
 50
346.548043615577
 51
352.3944189775885
  0
ARC
  5
3A2
330
77
100
AcDbEntity
  8
MaSichtkante
100
AcDbCircle
 10
314.1386740711503
 20
970.3116803704736
 30
0.0
 40
16.99999999999992
100
AcDbArc
 50
324.0914381540236
 51
335.9085618459765
  0
ARC
  5
3A3
330
77
100
AcDbEntity
  8
MaSichtkante
100
AcDbCircle
 10
314.1386740711502
 20
970.3116803704736
 30
0.0
 40
17.00000000000007
100
AcDbArc
 50
306.5480436155774
 51
313.4519563844224
  0
ARC
  5
3A4
330
77
100
AcDbEntity
  8
MaSichtkante
100
AcDbCircle
 10
314.1386740711503
 20
970.3116803704736
 30
0.0
 40
16.99999999999988
100
AcDbArc
 50
284.0914381540236
 51
295.9085618459769
  0
ARC
  5
3A5
330
77
100
AcDbEntity
  8
MaSichtkante
100
AcDbCircle
 10
314.1386740711503
 20
970.3116803704736
 30
0.0
 40
16.99999999999985
100
AcDbArc
 50
266.5480436155773
 51
273.451956384423
  0
ARC
  5
3A6
330
77
100
AcDbEntity
  8
MaSichtkante
100
AcDbCircle
 10
314.1386740711503
 20
970.3116803704736
 30
0.0
 40
17.00000000000008
100
AcDbArc
 50
244.091438154024
 51
255.9085618459767
  0
ARC
  5
3A7
330
77
100
AcDbEntity
  8
MaSichtkante
100
AcDbCircle
 10
314.1386740711498
 20
970.311680370473
 30
0.0
 40
16.99999999999927
100
AcDbArc
 50
226.5480436155772
 51
233.4519563844232
  0
ARC
  5
3A8
330
77
100
AcDbEntity
  8
MaSichtkante
100
AcDbCircle
 10
314.1386740711502
 20
970.3116803704736
 30
0.0
 40
16.99999999999997
100
AcDbArc
 50
204.0914381540235
 51
215.9085618459769
  0
ARC
  5
3A9
330
77
100
AcDbEntity
  8
MaSichtkante
100
AcDbCircle
 10
314.1386740711497
 20
970.3116803704736
 30
0.0
 40
16.99999999999944
100
AcDbArc
 50
187.6055810224115
 51
193.4519563844235
  0
ARC
  5
3AA
330
77
100
AcDbEntity
  8
MaSichtkante
100
AcDbCircle
 10
314.1386740711503
 20
970.3116803704736
 30
0.0
 40
19.50000000000001
100
AcDbArc
 50
164.8511438266216
 51
175.148856173378
  0
ARC
  5
3AB
330
77
100
AcDbEntity
  8
MaSichtkante
100
AcDbCircle
 10
314.1386740711502
 20
970.3116803704736
 30
0.0
 40
19.49999999999987
100
AcDbArc
 50
142.6388393364896
 51
157.3611606635106
  0
ARC
  5
3AC
330
77
100
AcDbEntity
  8
MaSichtkante
100
AcDbCircle
 10
314.1386740711503
 20
970.3116803704736
 30
0.0
 40
19.50000000000003
100
AcDbArc
 50
124.8511438266217
 51
135.1488561733785
  0
ARC
  5
3AD
330
77
100
AcDbEntity
  8
MaSichtkante
100
AcDbCircle
 10
314.1386740711502
 20
970.3116803704739
 30
0.0
 40
19.49999999999977
100
AcDbArc
 50
102.6388393364895
 51
117.3611606635105
  0
ARC
  5
3AE
330
77
100
AcDbEntity
  8
MaSichtkante
100
AcDbCircle
 10
314.1386740711503
 20
970.3116803704736
 30
0.0
 40
19.50000000000017
100
AcDbArc
 50
84.85114382662191
 51
95.1488561733784
  0
ARC
  5
3AF
330
77
100
AcDbEntity
  8
MaSichtkante
100
AcDbCircle
 10
314.1386740711503
 20
970.3116803704739
 30
0.0
 40
19.49999999999984
100
AcDbArc
 50
62.63883933648936
 51
77.36116066351043
  0
ARC
  5
3B0
330
77
100
AcDbEntity
  8
MaSichtkante
100
AcDbCircle
 10
314.1386740711499
 20
970.3116803704734
 30
0.0
 40
19.50000000000055
100
AcDbArc
 50
44.85114382662163
 51
55.1488561733777
  0
ARC
  5
3B1
330
77
100
AcDbEntity
  8
MaSichtkante
100
AcDbCircle
 10
314.1386740711503
 20
970.3116803704736
 30
0.0
 40
19.4999999999999
100
AcDbArc
 50
22.63883933648925
 51
37.36116066351039
  0
ARC
  5
3B2
330
77
100
AcDbEntity
  8
MaSichtkante
100
AcDbCircle
 10
314.1386740711504
 20
970.3116803704736
 30
0.0
 40
19.49999999999981
100
AcDbArc
 50
4.851143826621455
 51
15.14885617337799
  0
ARC
  5
3B3
330
77
100
AcDbEntity
  8
MaSichtkante
100
AcDbCircle
 10
314.1386740711502
 20
970.3116803704736
 30
0.0
 40
19.50000000000006
100
AcDbArc
 50
342.6388393364902
 51
357.3611606635107
  0
ARC
  5
3B4
330
77
100
AcDbEntity
  8
MaSichtkante
100
AcDbCircle
 10
314.1386740711502
 20
970.3116803704736
 30
0.0
 40
19.50000000000006
100
AcDbArc
 50
324.8511438266216
 51
335.1488561733782
  0
ARC
  5
3B5
330
77
100
AcDbEntity
  8
MaSichtkante
100
AcDbCircle
 10
314.1386740711502
 20
970.3116803704739
 30
0.0
 40
19.50000000000015
100
AcDbArc
 50
302.6388393364897
 51
317.3611606635105
  0
ARC
  5
3B6
330
77
100
AcDbEntity
  8
MaSichtkante
100
AcDbCircle
 10
314.1386740711503
 20
970.3116803704736
 30
0.0
 40
19.49999999999974
100
AcDbArc
 50
284.8511438266219
 51
295.1488561733782
  0
ARC
  5
3B7
330
77
100
AcDbEntity
  8
MaSichtkante
100
AcDbCircle
 10
314.1386740711503
 20
970.3116803704736
 30
0.0
 40
19.49999999999994
100
AcDbArc
 50
262.6388393364897
 51
277.3611606635107
  0
ARC
  5
3B8
330
77
100
AcDbEntity
  8
MaSichtkante
100
AcDbCircle
 10
314.1386740711504
 20
970.3116803704743
 30
0.0
 40
19.50000000000043
100
AcDbArc
 50
244.851143826622
 51
255.1488561733782
  0
ARC
  5
3B9
330
77
100
AcDbEntity
  8
MaSichtkante
100
AcDbCircle
 10
314.1386740711504
 20
970.3116803704739
 30
0.0
 40
19.50000000000031
100
AcDbArc
 50
222.6388393364899
 51
237.3611606635105
  0
ARC
  5
3BA
330
77
100
AcDbEntity
  8
MaSichtkante
100
AcDbCircle
 10
314.13867407115
 20
970.3116803704736
 30
0.0
 40
19.49999999999976
100
AcDbArc
 50
204.8511438266216
 51
215.1488561733783
  0
ARC
  5
3BB
330
77
100
AcDbEntity
  8
MaSichtkante
100
AcDbCircle
 10
314.1386740711503
 20
970.3116803704736
 30
0.0
 40
19.49999999999998
100
AcDbArc
 50
182.6388393364899
 51
197.3611606635105
  0
ARC
  5
3BC
330
77
100
AcDbEntity
  8
MaSichtkante
100
AcDbCircle
 10
314.1386740711502
 20
970.3116803704736
 30
0.0
 40
18.00000000000015
100
AcDbArc
 50
343.3321356308832
 51
352.8192442185415
  0
ARC
  5
3BD
330
77
100
AcDbEntity
  8
MaSichtkante
100
AcDbCircle
 10
314.1386740711503
 20
970.3116803704736
 30
0.0
 40
17.99999999999988
100
AcDbArc
 50
324.4207640323537
 51
335.5792359676461
  0
ARC
  5
3BE
330
77
100
AcDbEntity
  8
MaSichtkante
100
AcDbCircle
 10
314.1386740711503
 20
970.3116803704736
 30
0.0
 40
17.9999999999999
100
AcDbArc
 50
303.3321356308833
 51
316.667864369117
  0
ARC
  5
3BF
330
77
100
AcDbEntity
  8
MaSichtkante
100
AcDbCircle
 10
314.1386740711504
 20
970.3116803704734
 30
0.0
 40
17.99999999999965
100
AcDbArc
 50
284.420764032354
 51
295.5792359676467
  0
ARC
  5
3C0
330
77
100
AcDbEntity
  8
MaSichtkante
100
AcDbCircle
 10
314.1386740711503
 20
970.3116803704736
 30
0.0
 40
17.99999999999979
100
AcDbArc
 50
263.3321356308833
 51
276.6678643691172
  0
ARC
  5
3C1
330
77
100
AcDbEntity
  8
MaSichtkante
100
AcDbCircle
 10
314.1386740711503
 20
970.3116803704739
 30
0.0
 40
18.00000000000012
100
AcDbArc
 50
244.4207640323542
 51
255.579235967646
  0
ARC
  5
3C2
330
77
100
AcDbEntity
  8
MaSichtkante
100
AcDbCircle
 10
314.1386740711502
 20
970.3116803704736
 30
0.0
 40
17.99999999999991
100
AcDbArc
 50
223.3321356308834
 51
236.6678643691172
  0
ARC
  5
3C3
330
77
100
AcDbEntity
  8
MaSichtkante
100
AcDbCircle
 10
314.1386740711503
 20
970.3116803704736
 30
0.0
 40
18.00000000000002
100
AcDbArc
 50
204.4207640323537
 51
215.5792359676463
  0
ARC
  5
3C4
330
77
100
AcDbEntity
  8
MaSichtkante
100
AcDbCircle
 10
314.1386740711498
 20
970.3116803704736
 30
0.0
 40
17.99999999999956
100
AcDbArc
 50
187.1807557814575
 51
196.6678643691169
  0
LINE
  5
3C5
330
77
100
AcDbEntity
  8
MaSichtkante
100
AcDbLine
 10
359.1386740713208
 20
1285.276430725957
 30
0.0
 11
269.1386740713209
 21
1285.276430725957
 31
0.0
  0
ARC
  5
3C6
330
77
100
AcDbEntity
  8
MaSichtkante
100
AcDbCircle
 10
359.138674071321
 20
1300.276430725957
 30
0.0
 40
14.99999999999997
100
AcDbArc
 50
269.9999999999998
 51
0.0
  0
ARC
  5
3C7
330
77
100
AcDbEntity
  8
MaSichtkante
100
AcDbCircle
 10
269.1386740713209
 20
1300.276430725957
 30
0.0
 40
15.00000000000002
100
AcDbArc
 50
180.0
 51
270.0
  0
LINE
  5
3C8
330
77
100
AcDbEntity
  8
MaSichtkante dünnFliese
100
AcDbLine
 10
254.1386740713209
 20
1300.276430725957
 30
0.0
 11
374.1386740713208
 21
1300.276430725957
 31
0.0
  0
LINE
  5
3C9
330
77
100
AcDbEntity
  8
MaSichtkante dünnFliese
100
AcDbLine
 10
374.1386740713208
 20
1330.276430725957
 30
0.0
 11
254.1386740713209
 21
1330.276430725957
 31
0.0
  0
ARC
  5
3CA
330
77
100
AcDbEntity
  8
MaSichtkante
100
AcDbCircle
 10
239.1386740713208
 20
1330.276430725957
 30
0.0
 40
14.99999999999998
100
AcDbArc
 50
0.0
 51
90.0
  0
ARC
  5
3CB
330
77
100
AcDbEntity
  8
MaSichtkante
100
AcDbCircle
 10
389.1386740713209
 20
1330.276430725957
 30
0.0
 40
15.00000000000001
100
AcDbArc
 50
90.00000000000019
 51
180.0
  0
ARC
  5
3CC
330
77
100
AcDbEntity
  8
MaSichtkante
100
AcDbCircle
 10
531.638674071321
 20
1502.776430725948
 30
0.0
 40
12.5
100
AcDbArc
 50
0.0
 51
90.00000000000044
  0
LINE
  5
3CD
330
77
100
AcDbEntity
  8
MaSichtkante
100
AcDbLine
 10
96.63867407132093
 20
1515.276430725948
 30
0.0
 11
531.6386740713209
 21
1515.276430725948
 31
0.0
  0
ARC
  5
3CE
330
77
100
AcDbEntity
  8
MaSichtkante
100
AcDbCircle
 10
96.63867407132087
 20
1502.776430725948
 30
0.0
 40
12.5
100
AcDbArc
 50
90.0
 51
180.0
  0
LINE
  5
3CF
330
77
100
AcDbEntity
  8
MaSichtkante dünnFliese
100
AcDbLine
 10
544.138674071321
 20
1502.776430725948
 30
0.0
 11
84.13867407132089
 21
1502.776430725948
 31
0.0
  0
ARC
  5
3D0
330
77
100
AcDbEntity
  8
MaSichtkante
100
AcDbCircle
 10
531.638674071321
 20
1357.776430725948
 30
0.0
 40
12.49999999999996
100
AcDbArc
 50
269.9999999999995
 51
0.0
  0
ARC
  5
3D1
330
77
100
AcDbEntity
  8
MaSichtkante
100
AcDbCircle
 10
96.6386740713208
 20
1357.776430725948
 30
0.0
 40
12.49999999999996
100
AcDbArc
 50
180.0
 51
270.0000000000006
  0
LINE
  5
3D2
330
77
100
AcDbEntity
  8
MaSichtkante
100
AcDbLine
 10
531.6386740713209
 20
1345.276430725948
 30
0.0
 11
96.63867407132087
 21
1345.276430725948
 31
0.0
  0
LINE
  5
3D3
330
77
100
AcDbEntity
  8
MaSichtkante dünnFliese
100
AcDbLine
 10
84.13867407132078
 20
1357.776430725948
 30
0.0
 11
544.138674071321
 21
1357.776430725948
 31
0.0
  0
LINE
  5
3D4
330
77
100
AcDbEntity
  8
MaSichtkante
100
AcDbLine
 10
254.1386740713208
 20
1330.276430725957
 30
0.0
 11
254.1386740713208
 21
1300.276430725957
 31
0.0
  0
LINE
  5
3D5
330
77
100
AcDbEntity
  8
MaSichtkante
100
AcDbLine
 10
374.1386740713208
 20
1330.276430725957
 30
0.0
 11
374.1386740713208
 21
1300.276430725957
 31
0.0
  0
LINE
  5
3D6
330
77
100
AcDbEntity
  8
MaSichtkante
100
AcDbLine
 10
84.13867407132086
 20
1502.776430725948
 30
0.0
 11
84.13867407132086
 21
1357.776430725948
 31
0.0
  0
LINE
  5
3D7
330
77
100
AcDbEntity
  8
MaSichtkante
100
AcDbLine
 10
544.138674071321
 20
1502.776430725948
 30
0.0
 11
544.138674071321
 21
1357.776430725948
 31
0.0
  0
LINE
  5
3D8
330
77
100
AcDbEntity
  8
MaSichtkante
100
AcDbLine
 10
547.3386740713208
 20
1472.132549354834
 30
0.0
 11
547.3386740713208
 21
1463.020312097205
 31
0.0
  0
LINE
  5
3D9
330
77
100
AcDbEntity
  8
MaSichtkante dünnFliese
100
AcDbLine
 10
544.638674071321
 20
1472.826430726019
 30
0.0
 11
544.638674071321
 21
1462.32643072602
 31
0.0
  0
LINE
  5
3DA
330
77
100
AcDbEntity
  8
MaSichtkante
100
AcDbLine
 10
544.138674071321
 20
1472.826430726019
 30
0.0
 11
544.638674071321
 21
1472.826430726019
 31
0.0
  0
LINE
  5
3DB
330
77
100
AcDbEntity
  8
MaSichtkante
100
AcDbLine
 10
544.138674071321
 20
1462.32643072602
 30
0.0
 11
544.638674071321
 21
1462.32643072602
 31
0.0
  0
ARC
  5
3DC
330
77
100
AcDbEntity
  8
MaSichtkante
100
AcDbCircle
 10
544.638674071321
 20
1467.926430726019
 30
0.0
 40
5.600000000000001
100
AcDbArc
 50
270.0000000000009
 51
298.8254491604129
  0
ARC
  5
3DD
330
77
100
AcDbEntity
  8
MaSichtkante
100
AcDbCircle
 10
544.638674071321
 20
1467.226430726019
 30
0.0
 40
5.599999999999999
100
AcDbArc
 50
61.17455083958714
 51
90.0
  0
LINE
  5
3DE
330
77
100
AcDbEntity
  8
MaSichtkante
100
AcDbLine
 10
547.3386740713208
 20
1397.132549354834
 30
0.0
 11
547.3386740713208
 21
1388.020312097205
 31
0.0
  0
LINE
  5
3DF
330
77
100
AcDbEntity
  8
MaSichtkante dünnFliese
100
AcDbLine
 10
544.638674071321
 20
1397.826430726019
 30
0.0
 11
544.638674071321
 21
1387.32643072602
 31
0.0
  0
LINE
  5
3E0
330
77
100
AcDbEntity
  8
MaSichtkante
100
AcDbLine
 10
544.138674071321
 20
1397.826430726019
 30
0.0
 11
544.638674071321
 21
1397.826430726019
 31
0.0
  0
LINE
  5
3E1
330
77
100
AcDbEntity
  8
MaSichtkante
100
AcDbLine
 10
544.138674071321
 20
1387.32643072602
 30
0.0
 11
544.638674071321
 21
1387.32643072602
 31
0.0
  0
ARC
  5
3E2
330
77
100
AcDbEntity
  8
MaSichtkante
100
AcDbCircle
 10
544.638674071321
 20
1392.926430726019
 30
0.0
 40
5.599999999999999
100
AcDbArc
 50
270.0000000000009
 51
298.8254491604129
  0
ARC
  5
3E3
330
77
100
AcDbEntity
  8
MaSichtkante
100
AcDbCircle
 10
544.638674071321
 20
1392.226430726019
 30
0.0
 40
5.599999999999999
100
AcDbArc
 50
61.17455083958714
 51
90.0
  0
LINE
  5
3E4
330
77
100
AcDbEntity
  8
MaSichtkante
100
AcDbLine
 10
80.93867407132092
 20
1463.020312097205
 30
0.0
 11
80.93867407132092
 21
1472.132549354834
 31
0.0
  0
LINE
  5
3E5
330
77
100
AcDbEntity
  8
MaSichtkante dünnFliese
100
AcDbLine
 10
83.6386740713209
 20
1462.32643072602
 30
0.0
 11
83.6386740713209
 21
1472.826430726019
 31
0.0
  0
LINE
  5
3E6
330
77
100
AcDbEntity
  8
MaSichtkante
100
AcDbLine
 10
84.13867407132091
 20
1462.32643072602
 30
0.0
 11
83.6386740713209
 21
1462.32643072602
 31
0.0
  0
LINE
  5
3E7
330
77
100
AcDbEntity
  8
MaSichtkante
100
AcDbLine
 10
84.13867407132091
 20
1472.826430726019
 30
0.0
 11
83.6386740713209
 21
1472.826430726019
 31
0.0
  0
ARC
  5
3E8
330
77
100
AcDbEntity
  8
MaSichtkante
100
AcDbCircle
 10
83.6386740713209
 20
1467.226430726019
 30
0.0
 40
5.600000000000003
100
AcDbArc
 50
90.00000000000033
 51
118.8254491604132
  0
ARC
  5
3E9
330
77
100
AcDbEntity
  8
MaSichtkante
100
AcDbCircle
 10
83.6386740713209
 20
1467.926430726019
 30
0.0
 40
5.600000000000002
100
AcDbArc
 50
241.1745508395871
 51
270.0
  0
LINE
  5
3EA
330
77
100
AcDbEntity
  8
MaSichtkante
100
AcDbLine
 10
80.93867407132085
 20
1388.020312097205
 30
0.0
 11
80.93867407132085
 21
1397.132549354834
 31
0.0
  0
LINE
  5
3EB
330
77
100
AcDbEntity
  8
MaSichtkante dünnFliese
100
AcDbLine
 10
83.63867407132083
 20
1387.32643072602
 30
0.0
 11
83.63867407132083
 21
1397.826430726019
 31
0.0
  0
LINE
  5
3EC
330
77
100
AcDbEntity
  8
MaSichtkante
100
AcDbLine
 10
84.13867407132086
 20
1387.32643072602
 30
0.0
 11
83.63867407132083
 21
1387.32643072602
 31
0.0
  0
LINE
  5
3ED
330
77
100
AcDbEntity
  8
MaSichtkante
100
AcDbLine
 10
84.13867407132086
 20
1397.826430726019
 30
0.0
 11
83.63867407132083
 21
1397.826430726019
 31
0.0
  0
ARC
  5
3EE
330
77
100
AcDbEntity
  8
MaSichtkante
100
AcDbCircle
 10
83.63867407132083
 20
1392.226430726019
 30
0.0
 40
5.599999999999999
100
AcDbArc
 50
90.00000000000033
 51
118.8254491604132
  0
ARC
  5
3EF
330
77
100
AcDbEntity
  8
MaSichtkante
100
AcDbCircle
 10
83.63867407132083
 20
1392.926430726019
 30
0.0
 40
5.599999999999999
100
AcDbArc
 50
241.174550839587
 51
270.0
  0
LINE
  5
3F0
330
77
100
AcDbEntity
  8
MaSichtkante
100
AcDbLine
 10
614.2830567120301
 20
1285.276430726021
 30
0.0
 11
844.2830567120301
 21
1285.276430725953
 31
0.0
  0
LINE
  5
3F1
330
77
100
AcDbEntity
  8
MaSichtkante
100
AcDbLine
 10
889.2830567120435
 20
1285.276430725939
 30
0.0
 11
844.2830567120301
 21
1285.276430725953
 31
0.0
  0
SPLINE
  5
3F2
330
77
100
AcDbEntity
  8
MaSichtkante
100
AcDbSpline
210
0.0
220
0.0
230
1.0
 70
    24
 71
     3
 72
    16
 73
    12
 74
     0
 42
0.000000001
 43
0.0000000001
 40
-6.508508401126687
 40
-6.508508401126687
 40
-6.508508401126687
 40
-6.508508401126687
 40
-6.212829342653567
 40
-6.212829342653567
 40
-5.667347854419871
 40
-5.667347854419871
 40
-5.123828582001919
 40
-5.123828582001919
 40
-4.524895005577938
 40
-4.524895005577938
 40
-4.14528758491684
 40
-4.14528758491684
 40
-4.14528758491684
 40
-4.14528758491684
 10
614.283056712039
 20
1345.276430726021
 30
0.0
 10
614.2830567120393
 20
1345.276430726021
 30
0.0
 10
614.2830567120397
 20
1345.180004541891
 30
0.0
 10
614.2830567120404
 20
1344.632315883483
 30
0.0
 10
614.2830567120407
 20
1343.955846107434
 30
0.0
 10
614.283056712041
 20
1342.029913130795
 30
0.0
 10
614.2830567120411
 20
1340.798356596012
 30
0.0
 10
614.2830567120409
 20
1337.767120382977
 30
0.0
 10
614.2830567120404
 20
1335.952593589799
 30
0.0
 10
614.2830567120397
 20
1332.793966085215
 30
0.0
 10
614.2830567120395
 20
1331.536301498668
 30
0.0
 10
614.283056712039
 20
1330.27643072602
 30
0.0
  0
LINE
  5
3F3
330
77
100
AcDbEntity
  8
MaSichtkante
100
AcDbLine
 10
614.2830567119967
 20
1345.276430726021
 30
0.0
 11
614.2830567119967
 21
1357.776430726021
 31
0.0
  0
LINE
  5
3F4
330
77
100
AcDbEntity
  8
MaSichtkante
100
AcDbLine
 10
614.2830567120397
 20
1502.776430726021
 30
0.0
 11
614.2830567120472
 21
1515.276430726021
 31
0.0
  0
LINE
  5
3F5
330
77
100
AcDbEntity
  8
MaSichtkante dünnFliese
100
AcDbLine
 10
844.2830567120301
 20
1285.276430725953
 30
0.0
 11
844.2830567120301
 21
1300.276430725953
 31
0.0
  0
LINE
  5
3F6
330
77
100
AcDbEntity
  8
MaSichtkante dünnFliese
100
AcDbLine
 10
844.2830567120301
 20
1300.276430725953
 30
0.0
 11
904.283056712048
 21
1300.276430725935
 31
0.0
  0
LINE
  5
3F7
330
77
100
AcDbEntity
  8
MaSichtkante
100
AcDbLine
 10
614.28305671203
 20
1285.276430726021
 30
0.0
 11
614.28305671203
 21
1300.276430726021
 31
0.0
  0
LINE
  5
3F8
330
77
100
AcDbEntity
  8
MaSichtkante dünnFliese
100
AcDbLine
 10
844.2830567120301
 20
1300.276430725953
 30
0.0
 11
614.2830567120301
 21
1300.276430726021
 31
0.0
  0
LINE
  5
3F9
330
77
100
AcDbEntity
  8
MaSichtkante dünnFliese
100
AcDbLine
 10
614.283056712039
 20
1330.276430726021
 30
0.0
 11
844.2830567120392
 21
1330.276430725953
 31
0.0
  0
LINE
  5
3FA
330
77
100
AcDbEntity
  8
MaSichtkante dünnFliese
100
AcDbLine
 10
904.2830567120571
 20
1330.276430725935
 30
0.0
 11
844.2830567120392
 21
1330.276430725953
 31
0.0
  0
LINE
  5
3FB
330
77
100
AcDbEntity
  8
MaSichtkante dünnFliese
100
AcDbLine
 10
844.2830567120392
 20
1330.276430725953
 30
0.0
 11
844.2830567120392
 21
1345.276430725953
 31
0.0
  0
LINE
  5
3FC
330
77
100
AcDbEntity
  8
MaSichtkante
100
AcDbLine
 10
874.2830567120472
 20
1515.276430725944
 30
0.0
 11
1091.783056712112
 21
1515.276430725879
 31
0.0
  0
LINE
  5
3FD
330
77
100
AcDbEntity
  8
MaSichtkante dünnFliese
100
AcDbLine
 10
874.2830567120398
 20
1502.776430725944
 30
0.0
 11
874.2830567120472
 21
1515.276430725944
 31
0.0
  0
LINE
  5
3FE
330
77
100
AcDbEntity
  8
MaSichtkante dünnFliese
100
AcDbLine
 10
1104.283056712108
 20
1502.776430725876
 30
0.0
 11
874.2830567120398
 21
1502.776430725944
 31
0.0
  0
LINE
  5
3FF
330
77
100
AcDbEntity
  8
MaSichtkante dünnFliese
100
AcDbLine
 10
614.2830567120398
 20
1502.776430726021
 30
0.0
 11
874.2830567120398
 21
1502.776430725944
 31
0.0
  0
LINE
  5
400
330
77
100
AcDbEntity
  8
MaSichtkante
100
AcDbLine
 10
874.2830567120474
 20
1515.276430725944
 30
0.0
 11
614.2830567120474
 21
1515.276430726021
 31
0.0
  0
LINE
  5
401
330
77
100
AcDbEntity
  8
MaSichtkante dünnFliese
100
AcDbLine
 10
874.2830567119968
 20
1357.776430725944
 30
0.0
 11
614.2830567119967
 21
1357.776430726021
 31
0.0
  0
LINE
  5
402
330
77
100
AcDbEntity
  8
MaSichtkante dünnFliese
100
AcDbLine
 10
874.2830567119968
 20
1345.276430725944
 30
0.0
 11
874.2830567119968
 21
1357.776430725944
 31
0.0
  0
LINE
  5
403
330
77
100
AcDbEntity
  8
MaSichtkante
100
AcDbLine
 10
1091.783056712061
 20
1345.276430725879
 30
0.0
 11
874.2830567119968
 21
1345.276430725944
 31
0.0
  0
LINE
  5
404
330
77
100
AcDbEntity
  8
MaSichtkante dünnFliese
100
AcDbLine
 10
874.2830567119968
 20
1357.776430725944
 30
0.0
 11
1104.283056712065
 21
1357.776430725876
 31
0.0
  0
LINE
  5
405
330
77
100
AcDbEntity
  8
MaSichtkante
100
AcDbLine
 10
614.2830567119967
 20
1345.276430726021
 30
0.0
 11
874.2830567119968
 21
1345.276430725944
 31
0.0
  0
ARC
  5
406
330
77
100
AcDbEntity
  8
MaSichtkante
100
AcDbCircle
 10
889.283056712048
 20
1300.276430725939
 30
0.0
 40
15.0
100
AcDbArc
 50
269.9999999999828
 51
0.0
  0
ARC
  5
407
330
77
100
AcDbEntity
  8
MaSichtkante
100
AcDbCircle
 10
919.2830567120566
 20
1330.27643072593
 30
0.0
 40
15.0
100
AcDbArc
 50
89.99999999998285
 51
180.0
  0
ARC
  5
408
330
77
100
AcDbEntity
  8
MaSichtkante
100
AcDbCircle
 10
1091.783056712108
 20
1502.776430725879
 30
0.0
 40
12.5
100
AcDbArc
 50
0.0
 51
89.999999999983
  0
ARC
  5
409
330
77
100
AcDbEntity
  8
MaSichtkante
100
AcDbCircle
 10
1091.783056712065
 20
1357.776430725879
 30
0.0
 40
12.5
100
AcDbArc
 50
269.999999999983
 51
0.0
  0
LINE
  5
40A
330
77
100
AcDbEntity
  8
MaSichtkante
100
AcDbLine
 10
614.2830567120398
 20
1502.776430726021
 30
0.0
 11
614.2830567119967
 21
1357.776430726021
 31
0.0
  0
LINE
  5
40B
330
77
100
AcDbEntity
  8
MaSichtkante dünnFliese
100
AcDbLine
 10
874.2830567120398
 20
1502.776430725944
 30
0.0
 11
874.2830567119968
 21
1357.776430725944
 31
0.0
  0
LINE
  5
40C
330
77
100
AcDbEntity
  8
MaSichtkante
100
AcDbLine
 10
1104.283056712108
 20
1502.776430725876
 30
0.0
 11
1104.283056712065
 21
1357.776430725876
 31
0.0
  0
LINE
  5
40D
330
77
100
AcDbEntity
  8
MaSichtkante dünnFliese
100
AcDbLine
 10
844.2830567120392
 20
1330.276430725953
 30
0.0
 11
844.2830567120301
 21
1300.276430725953
 31
0.0
  0
LINE
  5
40E
330
77
100
AcDbEntity
  8
MaSichtkante
100
AcDbLine
 10
614.283056712039
 20
1330.276430726021
 30
0.0
 11
614.2830567120301
 21
1300.276430726021
 31
0.0
  0
LINE
  5
40F
330
77
100
AcDbEntity
  8
MaSichtkante
100
AcDbLine
 10
904.2830567120571
 20
1330.276430725935
 30
0.0
 11
904.283056712048
 21
1300.276430725935
 31
0.0
  0
CIRCLE
  5
410
330
77
100
AcDbEntity
  8
MaSichtkante
100
AcDbCircle
 10
634.2830567120286
 20
1467.576430726015
 30
0.0
 40
4.556118628814441
  0
LINE
  5
411
330
77
100
AcDbEntity
  8
MaSichtkante
100
AcDbLine
 10
632.2840186063468
 20
1468.730575914449
 30
0.0
 11
634.2830567120297
 21
1469.884721102881
 31
0.0
  0
LINE
  5
412
330
77
100
AcDbEntity
  8
MaSichtkante
100
AcDbLine
 10
634.2830567120297
 20
1469.884721102881
 30
0.0
 11
636.2820948177065
 21
1468.730575914447
 31
0.0
  0
LINE
  5
413
330
77
100
AcDbEntity
  8
MaSichtkante
100
AcDbLine
 10
636.2820948177065
 20
1468.730575914447
 30
0.0
 11
636.2820948177057
 21
1466.42228553758
 31
0.0
  0
LINE
  5
414
330
77
100
AcDbEntity
  8
MaSichtkante
100
AcDbLine
 10
636.2820948177057
 20
1466.42228553758
 30
0.0
 11
634.2830567120273
 21
1465.268140349147
 31
0.0
  0
LINE
  5
415
330
77
100
AcDbEntity
  8
MaSichtkante
100
AcDbLine
 10
634.2830567120273
 20
1465.268140349147
 30
0.0
 11
632.2840186063463
 21
1466.422285537583
 31
0.0
  0
LINE
  5
416
330
77
100
AcDbEntity
  8
MaSichtkante
100
AcDbLine
 10
632.2840186063463
 20
1466.422285537583
 30
0.0
 11
632.2840186063468
 21
1468.730575914449
 31
0.0
  0
CIRCLE
  5
417
330
77
100
AcDbEntity
  8
MaSichtkante
100
AcDbCircle
 10
634.2830567120293
 20
1467.576430726015
 30
0.0
 40
5.250000000000001
  0
CIRCLE
  5
418
330
77
100
AcDbEntity
  8
MaSichtkante
100
AcDbCircle
 10
634.2830567120062
 20
1392.576430726015
 30
0.0
 40
4.556118628814438
  0
LINE
  5
419
330
77
100
AcDbEntity
  8
MaSichtkante
100
AcDbLine
 10
632.2840186063245
 20
1393.730575914449
 30
0.0
 11
634.2830567120075
 21
1394.88472110288
 31
0.0
  0
LINE
  5
41A
330
77
100
AcDbEntity
  8
MaSichtkante
100
AcDbLine
 10
634.2830567120075
 20
1394.88472110288
 30
0.0
 11
636.2820948176842
 21
1393.730575914447
 31
0.0
  0
LINE
  5
41B
330
77
100
AcDbEntity
  8
MaSichtkante
100
AcDbLine
 10
636.2820948176842
 20
1393.730575914447
 30
0.0
 11
636.2820948176836
 21
1391.42228553758
 31
0.0
  0
LINE
  5
41C
330
77
100
AcDbEntity
  8
MaSichtkante
100
AcDbLine
 10
636.2820948176836
 20
1391.42228553758
 30
0.0
 11
634.2830567120052
 21
1390.268140349147
 31
0.0
  0
LINE
  5
41D
330
77
100
AcDbEntity
  8
MaSichtkante
100
AcDbLine
 10
634.2830567120052
 20
1390.268140349147
 30
0.0
 11
632.2840186063237
 21
1391.422285537583
 31
0.0
  0
LINE
  5
41E
330
77
100
AcDbEntity
  8
MaSichtkante
100
AcDbLine
 10
632.2840186063237
 20
1391.422285537583
 30
0.0
 11
632.2840186063245
 21
1393.730575914449
 31
0.0
  0
CIRCLE
  5
41F
330
77
100
AcDbEntity
  8
MaSichtkante
100
AcDbCircle
 10
634.2830567120072
 20
1392.576430726015
 30
0.0
 40
5.25
  0
ENDSEC
  0
SECTION
  2
OBJECTS
  0
DICTIONARY
  5
C
330
0
100
AcDbDictionary
281
     1
  3
ACAD_CIP_PREVIOUS_PRODUCT_INFO
350
4E1
  3
ACAD_COLOR
350
6E
  3
ACAD_DETAILVIEWSTYLE
350
4D9
  3
ACAD_GROUP
350
D
  3
ACAD_LAYOUT
350
6D
  3
ACAD_MATERIAL
350
10
  3
ACAD_MLEADERSTYLE
350
71
  3
ACAD_MLINESTYLE
350
6A
  3
ACAD_PLOTSETTINGS
350
6C
  3
ACAD_PLOTSTYLENAME
350
E
  3
ACAD_SCALELIST
350
3D
  3
ACAD_SECTIONVIEWSTYLE
350
4D7
  3
ACAD_TABLESTYLE
350
6F
  3
ACAD_VISUALSTYLE
350
29
  3
ACDB_RECOMPOSE_DATA
350
65E
  3
AcDbVariableDictionary
350
420
  3
DWGPROPS
350
65F
  0
DICTIONARY
  5
600
330
1DF
100
AcDbDictionary
280
     1
281
     1
  0
DICTIONARY
  5
42B
330
106
100
AcDbDictionary
280
     1
281
     1
  3
ACAD_MLATT
360
610
  3
ACAD_XREC_ROUNDTRIP
360
60F
  0
DICTIONARY
  5
5DA
330
5D9
100
AcDbDictionary
280
     1
281
     1
  3
ACAD_MLATT
360
639
  3
ACAD_XREC_ROUNDTRIP
360
638
  0
DICTIONARY
  5
5DC
330
5DB
100
AcDbDictionary
280
     1
281
     1
  3
ACAD_MLATT
360
63B
  3
ACAD_XREC_ROUNDTRIP
360
63A
  0
DICTIONARY
  5
5DE
330
5DD
100
AcDbDictionary
280
     1
281
     1
  3
ACAD_MLATT
360
63D
  3
ACAD_XREC_ROUNDTRIP
360
63C
  0
DICTIONARY
  5
5E0
330
5DF
100
AcDbDictionary
280
     1
281
     1
  3
ACAD_MLATT
360
63F
  3
ACAD_XREC_ROUNDTRIP
360
63E
  0
DICTIONARY
  5
5E2
330
5E1
100
AcDbDictionary
280
     1
281
     1
  3
ACAD_MLATT
360
641
  3
ACAD_XREC_ROUNDTRIP
360
640
  0
DICTIONARY
  5
5E4
330
5E3
100
AcDbDictionary
280
     1
281
     1
  3
ACAD_MLATT
360
643
  3
ACAD_XREC_ROUNDTRIP
360
642
  0
DICTIONARY
  5
5E6
330
5E5
100
AcDbDictionary
280
     1
281
     1
  3
ACAD_MLATT
360
645
  3
ACAD_XREC_ROUNDTRIP
360
644
  0
DICTIONARY
  5
5E8
330
5E7
100
AcDbDictionary
280
     1
281
     1
  3
ACAD_MLATT
360
647
  3
ACAD_XREC_ROUNDTRIP
360
646
  0
DICTIONARY
  5
5EA
330
5E9
100
AcDbDictionary
280
     1
281
     1
  3
ACAD_MLATT
360
649
  3
ACAD_XREC_ROUNDTRIP
360
648
  0
DICTIONARY
  5
5EC
330
5EB
100
AcDbDictionary
280
     1
281
     1
  3
ACAD_MLATT
360
64B
  3
ACAD_XREC_ROUNDTRIP
360
64A
  0
DICTIONARY
  5
5EE
330
5ED
100
AcDbDictionary
280
     1
281
     1
  3
ACAD_MLATT
360
64D
  3
ACAD_XREC_ROUNDTRIP
360
64C
  0
DICTIONARY
  5
5F0
330
5EF
100
AcDbDictionary
280
     1
281
     1
  3
ACAD_MLATT
360
64F
  3
ACAD_XREC_ROUNDTRIP
360
64E
  0
DICTIONARY
  5
5F2
330
5F1
100
AcDbDictionary
280
     1
281
     1
  3
ACAD_MLATT
360
651
  3
ACAD_XREC_ROUNDTRIP
360
650
  0
DICTIONARY
  5
5F4
330
5F3
100
AcDbDictionary
280
     1
281
     1
  3
ACAD_MLATT
360
653
  3
ACAD_XREC_ROUNDTRIP
360
652
  0
DICTIONARY
  5
5F6
330
5F5
100
AcDbDictionary
280
     1
281
     1
  3
ACAD_MLATT
360
655
  3
ACAD_XREC_ROUNDTRIP
360
654
  0
DICTIONARY
  5
5F8
330
5F7
100
AcDbDictionary
280
     1
281
     1
  3
ACAD_MLATT
360
657
  3
ACAD_XREC_ROUNDTRIP
360
656
  0
DICTIONARY
  5
5FA
330
5F9
100
AcDbDictionary
280
     1
281
     1
  3
ACAD_MLATT
360
659
  3
ACAD_XREC_ROUNDTRIP
360
658
  0
DICTIONARY
  5
5FC
330
5FB
100
AcDbDictionary
280
     1
281
     1
  3
ACAD_MLATT
360
65B
  3
ACAD_XREC_ROUNDTRIP
360
65A
  0
DICTIONARY
  5
5FE
330
5FD
100
AcDbDictionary
280
     1
281
     1
  3
ACAD_MLATT
360
65D
  3
ACAD_XREC_ROUNDTRIP
360
65C
  0
DICTIONARY
  5
468
330
2ED
100
AcDbDictionary
280
     1
281
     1
  3
ACAD_MLATT
360
613
  3
ACAD_XREC_ROUNDTRIP
360
612
  0
DICTIONARY
  5
46B
330
2EE
100
AcDbDictionary
280
     1
281
     1
  3
ACAD_MLATT
360
615
  3
ACAD_XREC_ROUNDTRIP
360
614
  0
DICTIONARY
  5
46E
330
2EF
100
AcDbDictionary
280
     1
281
     1
  3
ACAD_MLATT
360
617
  3
ACAD_XREC_ROUNDTRIP
360
616
  0
DICTIONARY
  5
471
330
2F0
100
AcDbDictionary
280
     1
281
     1
  3
ACAD_MLATT
360
619
  3
ACAD_XREC_ROUNDTRIP
360
618
  0
DICTIONARY
  5
474
330
2F1
100
AcDbDictionary
280
     1
281
     1
  3
ACAD_MLATT
360
61B
  3
ACAD_XREC_ROUNDTRIP
360
61A
  0
DICTIONARY
  5
477
330
2F2
100
AcDbDictionary
280
     1
281
     1
  3
ACAD_MLATT
360
61D
  3
ACAD_XREC_ROUNDTRIP
360
61C
  0
DICTIONARY
  5
47A
330
2F3
100
AcDbDictionary
280
     1
281
     1
  3
ACAD_MLATT
360
61F
  3
ACAD_XREC_ROUNDTRIP
360
61E
  0
DICTIONARY
  5
47D
330
2F4
100
AcDbDictionary
280
     1
281
     1
  3
ACAD_MLATT
360
621
  3
ACAD_XREC_ROUNDTRIP
360
620
  0
DICTIONARY
  5
480
330
2F5
100
AcDbDictionary
280
     1
281
     1
  3
ACAD_MLATT
360
623
  3
ACAD_XREC_ROUNDTRIP
360
622
  0
DICTIONARY
  5
483
330
2F6
100
AcDbDictionary
280
     1
281
     1
  3
ACAD_MLATT
360
625
  3
ACAD_XREC_ROUNDTRIP
360
624
  0
DICTIONARY
  5
486
330
2F7
100
AcDbDictionary
280
     1
281
     1
  3
ACAD_MLATT
360
627
  3
ACAD_XREC_ROUNDTRIP
360
626
  0
DICTIONARY
  5
489
330
2F8
100
AcDbDictionary
280
     1
281
     1
  3
ACAD_MLATT
360
629
  3
ACAD_XREC_ROUNDTRIP
360
628
  0
DICTIONARY
  5
48C
330
2F9
100
AcDbDictionary
280
     1
281
     1
  3
ACAD_MLATT
360
62B
  3
ACAD_XREC_ROUNDTRIP
360
62A
  0
DICTIONARY
  5
48F
330
2FA
100
AcDbDictionary
280
     1
281
     1
  3
ACAD_MLATT
360
62D
  3
ACAD_XREC_ROUNDTRIP
360
62C
  0
DICTIONARY
  5
492
330
2FB
100
AcDbDictionary
280
     1
281
     1
  3
ACAD_MLATT
360
62F
  3
ACAD_XREC_ROUNDTRIP
360
62E
  0
DICTIONARY
  5
495
330
2FC
100
AcDbDictionary
280
     1
281
     1
  3
ACAD_MLATT
360
631
  3
ACAD_XREC_ROUNDTRIP
360
630
  0
DICTIONARY
  5
498
330
2FD
100
AcDbDictionary
280
     1
281
     1
  3
ACAD_MLATT
360
633
  3
ACAD_XREC_ROUNDTRIP
360
632
  0
DICTIONARY
  5
49B
330
2FE
100
AcDbDictionary
280
     1
281
     1
  3
ACAD_MLATT
360
635
  3
ACAD_XREC_ROUNDTRIP
360
634
  0
DICTIONARY
  5
49E
330
2FF
100
AcDbDictionary
280
     1
281
     1
  3
ACAD_MLATT
360
637
  3
ACAD_XREC_ROUNDTRIP
360
636
  0
XRECORD
  5
4E1
102
{ACAD_REACTORS
330
C
102
}
330
C
100
AcDbXrecord
280
     1
300
ACD
300
2021
300

  0
DICTIONARY
  5
6E
102
{ACAD_REACTORS
330
C
102
}
330
C
100
AcDbDictionary
281
     1
  0
DICTIONARY
  5
4D9
102
{ACAD_REACTORS
330
C
102
}
330
C
100
AcDbDictionary
281
     1
  3
Metric50
350
4DA
  0
DICTIONARY
  5
D
102
{ACAD_REACTORS
330
C
102
}
330
C
100
AcDbDictionary
281
     1
  0
DICTIONARY
  5
6D
102
{ACAD_REACTORS
330
C
102
}
330
C
100
AcDbDictionary
281
     1
  3
Layout1
350
76
  3
Layout2
350
7E
  3
Model
350
7A
  0
DICTIONARY
  5
10
102
{ACAD_REACTORS
330
C
102
}
330
C
100
AcDbDictionary
281
     1
  3
ByBlock
350
19
  3
ByLayer
350
11
  3
Global
350
21
  0
DICTIONARY
  5
71
102
{ACAD_REACTORS
330
C
102
}
330
C
100
AcDbDictionary
281
     1
  3
Standard
350
72
  0
DICTIONARY
  5
6A
102
{ACAD_REACTORS
330
C
102
}
330
C
100
AcDbDictionary
281
     1
  3
Standard
350
6B
  0
DICTIONARY
  5
6C
102
{ACAD_REACTORS
330
C
102
}
330
C
100
AcDbDictionary
281
     1
  0
ACDBDICTIONARYWDFLT
  5
E
102
{ACAD_REACTORS
330
C
102
}
330
C
100
AcDbDictionary
281
     1
  3
Normal
350
F
100
AcDbDictionaryWithDefault
340
F
  0
DICTIONARY
  5
3D
102
{ACAD_REACTORS
330
C
102
}
330
C
100
AcDbDictionary
281
     1
  3
A0
350
3E
  3
A1
350
3F
  3
A2
350
40
  3
A3
350
41
  3
A4
350
42
  3
A5
350
43
  3
A6
350
44
  3
A7
350
45
  3
A8
350
46
  3
A9
350
47
  3
B0
350
48
  3
B1
350
49
  3
B2
350
4A
  3
B3
350
4B
  3
B4
350
4C
  3
B5
350
4D
  3
B6
350
4E
  3
B7
350
4F
  3
B8
350
50
  3
B9
350
51
  3
C0
350
52
  3
C1
350
53
  3
C2
350
54
  3
C3
350
55
  3
C4
350
56
  3
C5
350
57
  3
C6
350
58
  3
C7
350
59
  3
C8
350
5A
  3
C9
350
5B
  3
D0
350
5C
  3
D1
350
5D
  3
D2
350
5E
  0
DICTIONARY
  5
4D7
102
{ACAD_REACTORS
330
C
102
}
330
C
100
AcDbDictionary
281
     1
  3
Metric50
350
4D8
  0
DICTIONARY
  5
6F
102
{ACAD_REACTORS
330
C
102
}
330
C
100
AcDbDictionary
281
     1
  3
Standard
350
70
  0
DICTIONARY
  5
29
102
{ACAD_REACTORS
330
C
102
}
330
C
100
AcDbDictionary
281
     1
  3
2dWireframe
350
2F
  3
3D Hidden
350
31
  3
3dWireframe
350
30
  3
Basic
350
2E
  3
Brighten
350
35
  3
ColorChange
350
39
  3
Conceptual
350
32
  3
Dim
350
34
  3
EdgeColorOff
350
3C
  3
Facepattern
350
38
  3
Flat
350
2A
  3
FlatWithEdges
350
2B
  3
Gouraud
350
2C
  3
GouraudWithEdges
350
2D
  3
Hidden
350
4D1
  3
JitterOff
350
3A
  3
Linepattern
350
37
  3
OverhangOff
350
3B
  3
Realistic
350
33
  3
Shaded
350
4D6
  3
Shaded with edges
350
4D5
  3
Shades of Gray
350
4D2
  3
Sketchy
350
4D3
  3
Thicken
350
36
  3
Wireframe
350
4D0
  3
X-Ray
350
4D4
  0
XRECORD
  5
65E
102
{ACAD_REACTORS
330
C
102
}
330
C
100
AcDbXrecord
280
     1
 90
        1
330
70
330
106
330
2ED
330
2EE
330
2EF
330
2F0
330
2F1
330
2F2
330
2F3
330
2F4
330
2F5
330
2F6
330
2F7
330
2F8
330
2F9
330
2FA
330
2FB
330
2FC
330
2FD
330
2FE
330
2FF
330
5D9
330
5DB
330
5DD
330
5DF
330
5E1
330
5E3
330
5E5
330
5E7
330
5E9
330
5EB
330
5ED
330
5EF
330
5F1
330
5F3
330
5F5
330
5F7
330
5F9
330
5FB
330
5FD
  0
DICTIONARY
  5
420
102
{ACAD_REACTORS
330
C
102
}
330
C
100
AcDbDictionary
281
     1
  3
CANNOSCALE
350
424
  3
CMLEADERSTYLE
350
422
  3
CTABLESTYLE
350
421
  3
CVIEWDETAILSTYLE
350
606
  3
CVIEWSECTIONSTYLE
350
607
  3
DIMASSOC
350
60B
  3
HIDETEXT
350
60A
  3
INDEXCTL
350
609
  3
LAYEREVAL
350
426
  3
LAYERNOTIFY
350
427
  3
LIGHTINGUNITS
350
425
  3
MSLTSCALE
350
423
  3
SORTENTS
350
608
  3
XCLIPFRAME
350
60C
  0
XRECORD
  5
65F
102
{ACAD_REACTORS
330
C
102
}
330
C
100
AcDbXrecord
280
     1
  1
DWGPROPS COOKIE
  2

  3

  4

  6

  7

  8
BE010
  9

300
Manager=
301
Company=
302
Category=
303
Part Number=0222-233292
304
Description=Einzelwaschtisch
305
Project=
306
Designer=
307
Engineer=
308
Authority=
309
Cost Center=
 40
0.0006193981481481
 41
2455813.721736111
 42
2460056.552268519
  1

 90
       37
300
Vendor=
300
User Status=
300
Design Status=WorkInProgress
300
Checked by=
300
Engr Approved by=
300
Mfg Approved by=
300
Departement=FAR-Marketing
300
Collection=ALCATRAZ
300
Document_Number=0222-233292
300
Title=Einzelwaschtisch
300
Auxiliary_Remark1=ANMX460
300
Auxiliary_Remark2=Marketingzeichnung
300
Part_Number=4000080198
300
Unit=mm
300
Scale=NTS
300
Drawn_By=Haken
300
Drawn_Date=08/30/2011
300
Checked_By=Lösch
300
Modified_By=Haken
300
Revision_Index_1=A
300
Revision_By_1=Haken
300
Revision_Date_1=09/01/2011
300
Revision_Memo_1=
300
EAN=7612982005206
300
Checked_Date=09/01/2011
300
Modified_Date=09/01/2011
300
Revision_Titel_1=
  0
XRECORD
  5
610
102
{ACAD_REACTORS
330
42B
102
}
330
42B
100
AcDbXrecord
280
     1
 70
     4
 70
     0
 70
     0
 40
1.0
  2
<Enter_Prompt_for_Field>
  1
Embedded Object
 10
0.0
 20
0.0
 30
0.0
 40
2.5
 41
0.0
 46
0.0
 71
     5
 72
     5
  1
\W0.9000;
  7
Text Style49
 73
     1
 44
1.0
  0
XRECORD
  5
60F
102
{ACAD_REACTORS
330
42B
102
}
330
42B
100
AcDbXrecord
280
     1
102
ACAD_MATT_HEIGHT
140
2.5
  0
XRECORD
  5
639
102
{ACAD_REACTORS
330
5DA
102
}
330
5DA
100
AcDbXrecord
280
     1
 70
     4
 70
     0
 70
     0
 40
1.0
  2
Title
  1
Embedded Object
 10
206.6
 20
126.0241925130958
 30
0.0
 40
5.0
 41
89.14362202638884
 46
0.0
 71
     4
 72
     5
  1
Einzelwaschtisch
  7
Text Style20
 73
     1
 44
1.0
  0
XRECORD
  5
638
102
{ACAD_REACTORS
330
5DA
102
}
330
5DA
100
AcDbXrecord
280
     1
102
ACAD_MATT_HEIGHT
140
5.0
  0
XRECORD
  5
63B
102
{ACAD_REACTORS
330
5DC
102
}
330
5DC
100
AcDbXrecord
280
     1
 70
     4
 70
     0
 70
     0
 40
1.0
  2
Auxiliary_Remark1
  1
Embedded Object
 10
206.6000000000001
 20
119.5241925130958
 30
0.0
 40
3.499999940395355
 41
88.8588638187849
 46
0.0
 71
     4
 72
     5
  1
ANMX460
  7
Text Style9
 73
     1
 44
1.0
  0
XRECORD
  5
63A
102
{ACAD_REACTORS
330
5DC
102
}
330
5DC
100
AcDbXrecord
280
     1
102
ACAD_MATT_HEIGHT
140
3.499999940395355
  0
XRECORD
  5
63D
102
{ACAD_REACTORS
330
5DE
102
}
330
5DE
100
AcDbXrecord
280
     1
 70
     4
 70
     0
 70
     0
 40
1.0
  2
Auxiliary_Remark2
  1
Embedded Object
 10
206.6
 20
113.0241925130958
 30
0.0
 40
3.499999940395355
 41
88.50560020660971
 46
0.0
 71
     4
 72
     5
  1
Marketingzeichnung
  7
Text Style9
 73
     1
 44
1.0
  0
XRECORD
  5
63C
102
{ACAD_REACTORS
330
5DE
102
}
330
5DE
100
AcDbXrecord
280
     1
102
ACAD_MATT_HEIGHT
140
3.499999940395355
  0
XRECORD
  5
63F
102
{ACAD_REACTORS
330
5E0
102
}
330
5E0
100
AcDbXrecord
280
     1
 70
     4
 70
     0
 70
     0
 40
1.0
  2
Part_number
  1
Embedded Object
 10
248.1
 20
141.0241925130958
 30
0.0
 40
2.5
 41
35.7212232739224
 46
0.0
 71
     4
 72
     5
  1
4000080198
  7
Text Style38
 73
     1
 44
1.0
  0
XRECORD
  5
63E
102
{ACAD_REACTORS
330
5E0
102
}
330
5E0
100
AcDbXrecord
280
     1
102
ACAD_MATT_HEIGHT
140
2.5
  0
XRECORD
  5
641
102
{ACAD_REACTORS
330
5E2
102
}
330
5E2
100
AcDbXrecord
280
     1
 70
     4
 70
     0
 70
     0
 40
1.0
  2
Document_Number
  1
Embedded Object
 10
218.1
 20
104.2741925130957
 30
0.0
 40
5.0
 41
45.26060067066413
 46
0.0
 71
     4
 72
     5
  1
0222-233292
  7
Text Style20
 73
     1
 44
1.0
  0
XRECORD
  5
640
102
{ACAD_REACTORS
330
5E2
102
}
330
5E2
100
AcDbXrecord
280
     1
102
ACAD_MATT_HEIGHT
140
5.0
  0
XRECORD
  5
643
102
{ACAD_REACTORS
330
5E4
102
}
330
5E4
100
AcDbXrecord
280
     1
 70
     4
 70
     0
 70
     0
 40
1.0
  2
Revision_Memo_1
  1
Embedded Object
 10
155.6
 20
138.0241925130958
 30
0.0
 40
2.000000029802321
 41
46.75017271010267
 46
0.0
 71
     1
 72
     5
  1

  7
Text Style40
 73
     1
 44
1.0
  0
XRECORD
  5
642
102
{ACAD_REACTORS
330
5E4
102
}
330
5E4
100
AcDbXrecord
280
     1
102
ACAD_MATT_HEIGHT
140
2.000000029802321
  0
XRECORD
  5
645
102
{ACAD_REACTORS
330
5E6
102
}
330
5E6
100
AcDbXrecord
280
     1
 70
     4
 70
     0
 70
     0
 40
1.0
  2
Revision_Index_1
  1
Embedded Object
 10
264.6
 20
104.2741925130957
 30
0.0
 40
5.0
 41
11.14714749717635
 46
0.0
 71
     4
 72
     5
  1
A
  7
Text Style20
 73
     1
 44
1.0
  0
XRECORD
  5
644
102
{ACAD_REACTORS
330
5E6
102
}
330
5E6
100
AcDbXrecord
280
     1
102
ACAD_MATT_HEIGHT
140
5.0
  0
XRECORD
  5
647
102
{ACAD_REACTORS
330
5E8
102
}
330
5E8
100
AcDbXrecord
280
     1
 70
     4
 70
     0
 70
     0
 40
1.0
  2
Sheet_Size
  1
Embedded Object
 10
205.6
 20
104.2741925130957
 30
0.0
 40
5.0
 41
44.17438307011514
 46
0.0
 71
     4
 72
     5
  1
A4
  7
Text Style20
 73
     1
 44
1.0
  0
XRECORD
  5
646
102
{ACAD_REACTORS
330
5E8
102
}
330
5E8
100
AcDbXrecord
280
     1
102
ACAD_MATT_HEIGHT
140
5.0
  0
XRECORD
  5
649
102
{ACAD_REACTORS
330
5EA
102
}
330
5EA
100
AcDbXrecord
280
     1
 70
     4
 70
     0
 70
     0
 40
1.0
  2
Drawn_By
  1
Embedded Object
 10
90.6
 20
141.0241925130958
 30
0.0
 40
2.000000029802321
 41
14.31996733840145
 46
0.0
 71
     4
 72
     5
  1
Haken
  7
Text Style40
 73
     1
 44
1.0
  0
XRECORD
  5
648
102
{ACAD_REACTORS
330
5EA
102
}
330
5EA
100
AcDbXrecord
280
     1
102
ACAD_MATT_HEIGHT
140
2.000000029802321
  0
XRECORD
  5
64B
102
{ACAD_REACTORS
330
5EC
102
}
330
5EC
100
AcDbXrecord
280
     1
 70
     4
 70
     0
 70
     0
 40
1.0
  2
Modified_By
  1
Embedded Object
 10
90.6
 20
133.5241925130958
 30
0.0
 40
2.000000029802321
 41
13.91658797675633
 46
0.0
 71
     4
 72
     5
  1
Haken
  7
Text Style40
 73
     1
 44
1.0
  0
XRECORD
  5
64A
102
{ACAD_REACTORS
330
5EC
102
}
330
5EC
100
AcDbXrecord
280
     1
102
ACAD_MATT_HEIGHT
140
2.000000029802321
  0
XRECORD
  5
64D
102
{ACAD_REACTORS
330
5EE
102
}
330
5EE
100
AcDbXrecord
280
     1
 70
     4
 70
     0
 70
     0
 40
1.0
  2
Drawn_Date
  1
Embedded Object
 10
135.6
 20
141.0241925130958
 30
0.0
 40
2.000000029802321
 41
20.97572680554579
 46
0.0
 71
     4
 72
     5
  1
30.08.2011
  7
Text Style40
 73
     1
 44
1.0
  0
XRECORD
  5
64C
102
{ACAD_REACTORS
330
5EE
102
}
330
5EE
100
AcDbXrecord
280
     1
102
ACAD_MATT_HEIGHT
140
2.000000029802321
  0
XRECORD
  5
64F
102
{ACAD_REACTORS
330
5F0
102
}
330
5F0
100
AcDbXrecord
280
     1
 70
     4
 70
     0
 70
     0
 40
1.0
  2
Modified_Date
  1
Embedded Object
 10
135.6
 20
133.5241925130958
 30
0.0
 40
2.000000029802321
 41
20.16896808225555
 46
0.0
 71
     4
 72
     5
  1
01.09.2011
  7
Text Style40
 73
     1
 44
1.0
  0
XRECORD
  5
64E
102
{ACAD_REACTORS
330
5F0
102
}
330
5F0
100
AcDbXrecord
280
     1
102
ACAD_MATT_HEIGHT
140
2.000000029802321
  0
XRECORD
  5
651
102
{ACAD_REACTORS
330
5F2
102
}
330
5F2
100
AcDbXrecord
280
     1
 70
     4
 70
     0
 70
     0
 40
1.0
  2
Revision_Titel_1
  1
Embedded Object
 10
155.6
 20
141.0241925130958
 30
0.0
 40
2.000000029802321
 41
52.8572926113155
 46
0.0
 71
     4
 72
     5
  1

  7
Text Style40
 73
     1
 44
1.0
  0
XRECORD
  5
650
102
{ACAD_REACTORS
330
5F2
102
}
330
5F2
100
AcDbXrecord
280
     1
102
ACAD_MATT_HEIGHT
140
2.000000029802321
  0
XRECORD
  5
653
102
{ACAD_REACTORS
330
5F4
102
}
330
5F4
100
AcDbXrecord
280
     1
 70
     4
 70
     0
 70
     0
 40
1.0
  2
Sheet_number
  1
Embedded Object
 10
278.35
 20
104.2741925130957
 30
0.0
 40
5.0
 41
0.0
 46
0.0
 71
     5
 72
     5
  1
\W0.9000;5 
  7
Text__5.0mm
 73
     1
 44
1.0
  0
XRECORD
  5
652
102
{ACAD_REACTORS
330
5F4
102
}
330
5F4
100
AcDbXrecord
280
     1
102
ACAD_MATT_HEIGHT
140
5.0
  0
XRECORD
  5
655
102
{ACAD_REACTORS
330
5F6
102
}
330
5F6
100
AcDbXrecord
280
     1
 70
     4
 70
     0
 70
     0
 40
1.0
  2
Number_of_sheets
  1
Embedded Object
 10
285.85
 20
104.2741925130957
 30
0.0
 40
5.0
 41
0.0
 46
0.0
 71
     5
 72
     5
  1
\W0.9000;5 
  7
Text__5.0mm
 73
     1
 44
1.0
  0
XRECORD
  5
654
102
{ACAD_REACTORS
330
5F6
102
}
330
5F6
100
AcDbXrecord
280
     1
102
ACAD_MATT_HEIGHT
140
5.0
  0
XRECORD
  5
657
102
{ACAD_REACTORS
330
5F8
102
}
330
5F8
100
AcDbXrecord
280
     1
 70
     4
 70
     0
 70
     0
 40
1.0
  2
FUN
  1
Embedded Object
 10
205.6
 20
133.5241925130958
 30
0.0
 40
2.5
 41
35.7212232739224
 46
0.0
 71
     4
 72
     5
  1

  7
Text Style38
 73
     1
 44
1.0
  0
XRECORD
  5
656
102
{ACAD_REACTORS
330
5F8
102
}
330
5F8
100
AcDbXrecord
280
     1
102
ACAD_MATT_HEIGHT
140
2.5
  0
XRECORD
  5
659
102
{ACAD_REACTORS
330
5FA
102
}
330
5FA
100
AcDbXrecord
280
     1
 70
     4
 70
     0
 70
     0
 40
1.0
  2
EAN
  1
Embedded Object
 10
248.1
 20
133.5241925130958
 30
0.0
 40
2.5
 41
35.7212232739224
 46
0.0
 71
     4
 72
     5
  1
7612982005206
  7
Text Style38
 73
     1
 44
1.0
  0
XRECORD
  5
658
102
{ACAD_REACTORS
330
5FA
102
}
330
5FA
100
AcDbXrecord
280
     1
102
ACAD_MATT_HEIGHT
140
2.5
  0
XRECORD
  5
65B
102
{ACAD_REACTORS
330
5FC
102
}
330
5FC
100
AcDbXrecord
280
     1
 70
     4
 70
     0
 70
     0
 40
1.0
  2
Departement
  1
Embedded Object
 10
110.6
 20
133.5241925130958
 30
0.0
 40
2.000000029802321
 41
17.55611008168829
 46
0.0
 71
     4
 72
     5
  1
FAR-Marketing
  7
Text Style40
 73
     1
 44
1.0
  0
XRECORD
  5
65A
102
{ACAD_REACTORS
330
5FC
102
}
330
5FC
100
AcDbXrecord
280
     1
102
ACAD_MATT_HEIGHT
140
2.000000029802321
  0
XRECORD
  5
65D
102
{ACAD_REACTORS
330
5FE
102
}
330
5FE
100
AcDbXrecord
280
     1
 70
     4
 70
     0
 70
     0
 40
1.0
  2
Departement
  1
Embedded Object
 10
110.6
 20
141.0241925130958
 30
0.0
 40
2.000000029802321
 41
18.45803981954006
 46
0.0
 71
     4
 72
     5
  1
FAR-Marketing
  7
Text Style40
 73
     1
 44
1.0
  0
XRECORD
  5
65C
102
{ACAD_REACTORS
330
5FE
102
}
330
5FE
100
AcDbXrecord
280
     1
102
ACAD_MATT_HEIGHT
140
2.000000029802321
  0
XRECORD
  5
613
102
{ACAD_REACTORS
330
468
102
}
330
468
100
AcDbXrecord
280
     1
 70
     2
 70
     0
 70
     0
 40
1.0
  2
Title
  1
Embedded Object
 10
671.0
 20
169.1250000000002
 30
0.0
 40
27.5
 41
490.2899211451386
 46
0.0
 71
     4
 72
     5
  1
Einzelwaschtisch
  7
Text Style20
 73
     1
 44
1.0
  0
XRECORD
  5
612
102
{ACAD_REACTORS
330
468
102
}
330
468
100
AcDbXrecord
280
     1
102
ACAD_MATT_HEIGHT
140
27.5
  0
XRECORD
  5
615
102
{ACAD_REACTORS
330
46B
102
}
330
46B
100
AcDbXrecord
280
     1
 70
     2
 70
     0
 70
     0
 40
1.0
  2
Auxiliary_Remark1
  1
Embedded Object
 10
671.0000000000002
 20
133.3750000000002
 30
0.0
 40
19.24999967217445
 41
488.7237510033168
 46
0.0
 71
     4
 72
     5
  1
ANMX460
  7
Text Style9
 73
     1
 44
1.0
  0
XRECORD
  5
614
102
{ACAD_REACTORS
330
46B
102
}
330
46B
100
AcDbXrecord
280
     1
102
ACAD_MATT_HEIGHT
140
19.24999967217445
  0
XRECORD
  5
617
102
{ACAD_REACTORS
330
46E
102
}
330
46E
100
AcDbXrecord
280
     1
 70
     2
 70
     0
 70
     0
 40
1.0
  2
Auxiliary_Remark2
  1
Embedded Object
 10
671.0
 20
97.62500000000031
 30
0.0
 40
19.24999967217445
 41
486.7808011363535
 46
0.0
 71
     4
 72
     5
  1
Marketingzeichnung
  7
Text Style9
 73
     1
 44
1.0
  0
XRECORD
  5
616
102
{ACAD_REACTORS
330
46E
102
}
330
46E
100
AcDbXrecord
280
     1
102
ACAD_MATT_HEIGHT
140
19.24999967217445
  0
XRECORD
  5
619
102
{ACAD_REACTORS
330
471
102
}
330
471
100
AcDbXrecord
280
     1
 70
     2
 70
     0
 70
     0
 40
1.0
  2
Part_number
  1
Embedded Object
 10
899.2500000000001
 20
251.6250000000002
 30
0.0
 40
13.75
 41
196.4667280065732
 46
0.0
 71
     4
 72
     5
  1
4000080198
  7
Text Style38
 73
     1
 44
1.0
  0
XRECORD
  5
618
102
{ACAD_REACTORS
330
471
102
}
330
471
100
AcDbXrecord
280
     1
102
ACAD_MATT_HEIGHT
140
13.75
  0
XRECORD
  5
61B
102
{ACAD_REACTORS
330
474
102
}
330
474
100
AcDbXrecord
280
     1
 70
     2
 70
     0
 70
     0
 40
1.0
  2
Document_Number
  1
Embedded Object
 10
734.2499999999996
 20
49.49999999999992
 30
0.0
 40
27.5
 41
248.9333036886528
 46
0.0
 71
     4
 72
     5
  1
0222-233292
  7
Text Style20
 73
     1
 44
1.0
  0
XRECORD
  5
61A
102
{ACAD_REACTORS
330
474
102
}
330
474
100
AcDbXrecord
280
     1
102
ACAD_MATT_HEIGHT
140
27.5
  0
XRECORD
  5
61D
102
{ACAD_REACTORS
330
477
102
}
330
477
100
AcDbXrecord
280
     1
 70
     2
 70
     0
 70
     0
 40
1.0
  2
Revision_Memo_1
  1
Embedded Object
 10
390.5
 20
235.1250000000001
 30
0.0
 40
11.00000016391277
 41
257.1259499055646
 46
0.0
 71
     1
 72
     5
  1

  7
Text Style40
 73
     1
 44
1.0
  0
XRECORD
  5
61C
102
{ACAD_REACTORS
330
477
102
}
330
477
100
AcDbXrecord
280
     1
102
ACAD_MATT_HEIGHT
140
11.00000016391277
  0
XRECORD
  5
61F
102
{ACAD_REACTORS
330
47A
102
}
330
47A
100
AcDbXrecord
280
     1
 70
     2
 70
     0
 70
     0
 40
1.0
  2
Revision_Index_1
  1
Embedded Object
 10
990.0
 20
49.49999999999963
 30
0.0
 40
27.5
 41
61.30931123446991
 46
0.0
 71
     4
 72
     5
  1
A
  7
Text Style20
 73
     1
 44
1.0
  0
XRECORD
  5
61E
102
{ACAD_REACTORS
330
47A
102
}
330
47A
100
AcDbXrecord
280
     1
102
ACAD_MATT_HEIGHT
140
27.5
  0
XRECORD
  5
621
102
{ACAD_REACTORS
330
47D
102
}
330
47D
100
AcDbXrecord
280
     1
 70
     2
 70
     0
 70
     0
 40
1.0
  2
Sheet_Size
  1
Embedded Object
 10
665.5000000000001
 20
49.49999999999992
 30
0.0
 40
27.5
 41
242.9591068856334
 46
0.0
 71
     4
 72
     5
  1
A4
  7
Text Style20
 73
     1
 44
1.0
  0
XRECORD
  5
620
102
{ACAD_REACTORS
330
47D
102
}
330
47D
100
AcDbXrecord
280
     1
102
ACAD_MATT_HEIGHT
140
27.5
  0
XRECORD
  5
623
102
{ACAD_REACTORS
330
480
102
}
330
480
100
AcDbXrecord
280
     1
 70
     2
 70
     0
 70
     0
 40
1.0
  2
Drawn_By
  1
Embedded Object
 10
32.9999999999999
 20
251.6250000000002
 30
0.0
 40
11.00000016391277
 41
78.75982036120801
 46
0.0
 71
     4
 72
     5
  1
Haken
  7
Text Style40
 73
     1
 44
1.0
  0
XRECORD
  5
622
102
{ACAD_REACTORS
330
480
102
}
330
480
100
AcDbXrecord
280
     1
102
ACAD_MATT_HEIGHT
140
11.00000016391277
  0
XRECORD
  5
625
102
{ACAD_REACTORS
330
483
102
}
330
483
100
AcDbXrecord
280
     1
 70
     2
 70
     0
 70
     0
 40
1.0
  2
Modified_By
  1
Embedded Object
 10
32.9999999999999
 20
210.3750000000004
 30
0.0
 40
11.00000016391277
 41
76.54123387215985
 46
0.0
 71
     4
 72
     5
  1
Haken
  7
Text Style40
 73
     1
 44
1.0
  0
XRECORD
  5
624
102
{ACAD_REACTORS
330
483
102
}
330
483
100
AcDbXrecord
280
     1
102
ACAD_MATT_HEIGHT
140
11.00000016391277
  0
XRECORD
  5
627
102
{ACAD_REACTORS
330
486
102
}
330
486
100
AcDbXrecord
280
     1
 70
     2
 70
     0
 70
     0
 40
1.0
  2
Drawn_Date
  1
Embedded Object
 10
280.5
 20
251.6250000000002
 30
0.0
 40
11.00000016391277
 41
115.3664974305019
 46
0.0
 71
     4
 72
     5
  1
30.08.2011
  7
Text Style40
 73
     1
 44
1.0
  0
XRECORD
  5
626
102
{ACAD_REACTORS
330
486
102
}
330
486
100
AcDbXrecord
280
     1
102
ACAD_MATT_HEIGHT
140
11.00000016391277
  0
XRECORD
  5
629
102
{ACAD_REACTORS
330
489
102
}
330
489
100
AcDbXrecord
280
     1
 70
     2
 70
     0
 70
     0
 40
1.0
  2
Modified_Date
  1
Embedded Object
 10
280.5
 20
210.3750000000004
 30
0.0
 40
11.00000016391277
 41
110.9293244524055
 46
0.0
 71
     4
 72
     5
  1
01.09.2011
  7
Text Style40
 73
     1
 44
1.0
  0
XRECORD
  5
628
102
{ACAD_REACTORS
330
489
102
}
330
489
100
AcDbXrecord
280
     1
102
ACAD_MATT_HEIGHT
140
11.00000016391277
  0
XRECORD
  5
62B
102
{ACAD_REACTORS
330
48C
102
}
330
48C
100
AcDbXrecord
280
     1
 70
     2
 70
     0
 70
     0
 40
1.0
  2
Revision_Titel_1
  1
Embedded Object
 10
390.5
 20
251.6250000000001
 30
0.0
 40
11.00000016391277
 41
290.7151093622354
 46
0.0
 71
     4
 72
     5
  1

  7
Text Style40
 73
     1
 44
1.0
  0
XRECORD
  5
62A
102
{ACAD_REACTORS
330
48C
102
}
330
48C
100
AcDbXrecord
280
     1
102
ACAD_MATT_HEIGHT
140
11.00000016391277
  0
XRECORD
  5
62D
102
{ACAD_REACTORS
330
48F
102
}
330
48F
100
AcDbXrecord
280
     1
 70
     2
 70
     0
 70
     0
 40
1.0
  2
Sheet_number
  1
Embedded Object
 10
1065.625
 20
49.49999999999963
 30
0.0
 40
27.5
 41
0.0
 46
0.0
 71
     5
 72
     5
  1
\W0.9000;5 
  7
Text__5.0mm
 73
     1
 44
1.0
  0
XRECORD
  5
62C
102
{ACAD_REACTORS
330
48F
102
}
330
48F
100
AcDbXrecord
280
     1
102
ACAD_MATT_HEIGHT
140
27.5
  0
XRECORD
  5
62F
102
{ACAD_REACTORS
330
492
102
}
330
492
100
AcDbXrecord
280
     1
 70
     2
 70
     0
 70
     0
 40
1.0
  2
Number_of_sheets
  1
Embedded Object
 10
1106.875
 20
49.49999999999963
 30
0.0
 40
27.5
 41
0.0
 46
0.0
 71
     5
 72
     5
  1
\W0.9000;5 
  7
Text__5.0mm
 73
     1
 44
1.0
  0
XRECORD
  5
62E
102
{ACAD_REACTORS
330
492
102
}
330
492
100
AcDbXrecord
280
     1
102
ACAD_MATT_HEIGHT
140
27.5
  0
XRECORD
  5
631
102
{ACAD_REACTORS
330
495
102
}
330
495
100
AcDbXrecord
280
     1
 70
     2
 70
     0
 70
     0
 40
1.0
  2
FUN
  1
Embedded Object
 10
665.5000000000001
 20
210.3750000000002
 30
0.0
 40
13.75
 41
196.4667280065732
 46
0.0
 71
     4
 72
     5
  1

  7
Text Style38
 73
     1
 44
1.0
  0
XRECORD
  5
630
102
{ACAD_REACTORS
330
495
102
}
330
495
100
AcDbXrecord
280
     1
102
ACAD_MATT_HEIGHT
140
13.75
  0
XRECORD
  5
633
102
{ACAD_REACTORS
330
498
102
}
330
498
100
AcDbXrecord
280
     1
 70
     2
 70
     0
 70
     0
 40
1.0
  2
EAN
  1
Embedded Object
 10
899.2500000000001
 20
210.3750000000002
 30
0.0
 40
13.75
 41
196.4667280065732
 46
0.0
 71
     4
 72
     5
  1
7612982005206
  7
Text Style38
 73
     1
 44
1.0
  0
XRECORD
  5
632
102
{ACAD_REACTORS
330
498
102
}
330
498
100
AcDbXrecord
280
     1
102
ACAD_MATT_HEIGHT
140
13.75
  0
XRECORD
  5
635
102
{ACAD_REACTORS
330
49B
102
}
330
49B
100
AcDbXrecord
280
     1
 70
     2
 70
     0
 70
     0
 40
1.0
  2
Departement
  1
Embedded Object
 10
142.9999999999999
 20
210.3750000000004
 30
0.0
 40
11.00000016391277
 41
96.55860544928561
 46
0.0
 71
     4
 72
     5
  1
Marketing
  7
Text Style40
 73
     1
 44
1.0
  0
XRECORD
  5
634
102
{ACAD_REACTORS
330
49B
102
}
330
49B
100
AcDbXrecord
280
     1
102
ACAD_MATT_HEIGHT
140
11.00000016391277
  0
XRECORD
  5
637
102
{ACAD_REACTORS
330
49E
102
}
330
49E
100
AcDbXrecord
280
     1
 70
     2
 70
     0
 70
     0
 40
1.0
  2
Departement
  1
Embedded Object
 10
142.9999999999999
 20
251.6250000000002
 30
0.0
 40
11.00000016391277
 41
101.5192190074703
 46
0.0
 71
     4
 72
     5
  1
Marketing
  7
Text Style40
 73
     1
 44
1.0
  0
XRECORD
  5
636
102
{ACAD_REACTORS
330
49E
102
}
330
49E
100
AcDbXrecord
280
     1
102
ACAD_MATT_HEIGHT
140
11.00000016391277
  0
ACDBDETAILVIEWSTYLE
  5
4DA
102
{ACAD_XDICTIONARY
360
69D
102
}
102
{ACAD_REACTORS
330
4D9
102
}
330
4D9
100
AcDbModelDocViewStyle
 70
     0
  3
Metric50
290
     0
100
AcDbDetailViewStyle
 70
     0
 71
     0
 90
        3
 71
     1
340
60
 40
5.0
340
0
 40
5.0
300

 40
0.0
280
     1
 71
     2
340
68
 90
       25
 71
     3
340
60
 40
5.0
 90
        0
 40
15.0
 90
        1
300
%<\AcVar ViewDetailId>% (%<\AcVar ViewScale \f "%sn">%)
 71
     4
340
68
 90
       25
340
68
 90
       25
280
     0
  0
LAYOUT
  5
76
102
{ACAD_XDICTIONARY
360
687
102
}
102
{ACAD_REACTORS
330
6D
102
}
330
6D
100
AcDbPlotSettings
  1

  2

  4

  6

 40
0.0
 41
0.0
 42
0.0
 43
0.0
 44
0.0
 45
0.0
 46
0.0
 47
0.0
 48
0.0
 49
0.0
140
0.0
141
0.0
142
1.0
143
1.0
 70
   688
 72
     0
 73
     0
 74
     5
  7

 75
    16
147
1.0
148
0.0
149
0.0
100
AcDbLayout
  1
Layout1
 70
     1
 71
     1
 10
0.0
 20
0.0
 11
1155.0
 21
1633.5
 12
0.0
 22
0.0
 32
0.0
 14
0.0
 24
0.0
 34
0.0
 15
1155.0
 25
1633.5
 35
0.0
146
0.0
 13
0.0
 23
0.0
 33
0.0
 16
1.0
 26
0.0
 36
0.0
 17
0.0
 27
1.0
 37
0.0
 76
     0
330
73
  0
LAYOUT
  5
7E
102
{ACAD_XDICTIONARY
360
68B
102
}
102
{ACAD_REACTORS
330
6D
102
}
330
6D
100
AcDbPlotSettings
  1

  2

  4

  6

 40
0.0
 41
0.0
 42
0.0
 43
0.0
 44
0.0
 45
0.0
 46
0.0
 47
0.0
 48
0.0
 49
0.0
140
0.0
141
0.0
142
1.0
143
1.0
 70
   688
 72
     0
 73
     0
 74
     5
  7

 75
    16
147
1.0
148
0.0
149
0.0
100
AcDbLayout
  1
Layout2
 70
     1
 71
     2
 10
0.0
 20
0.0
 11
12.0
 21
9.0
 12
0.0
 22
0.0
 32
0.0
 14
0.0
 24
0.0
 34
0.0
 15
0.0
 25
0.0
 35
0.0
146
0.0
 13
0.0
 23
0.0
 33
0.0
 16
1.0
 26
0.0
 36
0.0
 17
0.0
 27
1.0
 37
0.0
 76
     0
330
7B
  0
LAYOUT
  5
7A
102
{ACAD_XDICTIONARY
360
689
102
}
102
{ACAD_REACTORS
330
6D
102
}
330
6D
100
AcDbPlotSettings
  1

  2

  4

  6

 40
0.0
 41
0.0
 42
0.0
 43
0.0
 44
0.0
 45
0.0
 46
0.0
 47
0.0
 48
0.0
 49
0.0
140
0.0
141
0.0
142
1.0
143
1.0
 70
  1712
 72
     0
 73
     0
 74
     0
  7

 75
     0
147
1.0
148
0.0
149
0.0
100
AcDbLayout
  1
Model
 70
     1
 71
     0
 10
0.0
 20
0.0
 11
12.0
 21
9.0
 12
0.0
 22
0.0
 32
0.0
 14
0.0
 24
0.0
 34
0.0
 15
0.0
 25
0.0
 35
0.0
146
0.0
 13
0.0
 23
0.0
 33
0.0
 16
1.0
 26
0.0
 36
0.0
 17
0.0
 27
1.0
 37
0.0
 76
     0
330
77
331
62
  0
MATERIAL
  5
19
102
{ACAD_XDICTIONARY
360
1A
102
}
102
{ACAD_REACTORS
330
10
102
}
330
10
100
AcDbMaterial
  1
ByBlock
 72
     0
 43
0.0208333333333333
 43
0.0
 43
0.0
 43
0.0
 43
0.0
 43
0.0208333333333333
 43
0.0
 43
0.0
 43
0.0
 43
0.0
 43
1.0
 43
0.0
 43
0.0
 43
0.0
 43
0.0
 43
1.0
 77
     0
 47
0.0208333333333333
 47
0.0
 47
0.0
 47
0.0
 47
0.0
 47
0.0208333333333333
 47
0.0
 47
0.0
 47
0.0
 47
0.0
 47
1.0
 47
0.0
 47
0.0
 47
0.0
 47
0.0
 47
1.0
171
     0
 49
0.0208333333333333
 49
0.0
 49
0.0
 49
0.0
 49
0.0
 49
0.0208333333333333
 49
0.0
 49
0.0
 49
0.0
 49
0.0
 49
1.0
 49
0.0
 49
0.0
 49
0.0
 49
0.0
 49
1.0
175
     0
142
0.0208333333333333
142
0.0
142
0.0
142
0.0
142
0.0
142
0.0208333333333333
142
0.0
142
0.0
142
0.0
142
0.0
142
1.0
142
0.0
142
0.0
142
0.0
142
0.0
142
1.0
179
     0
144
0.0208333333333333
144
0.0
144
0.0
144
0.0
144
0.0
144
0.0208333333333333
144
0.0
144
0.0
144
0.0
144
0.0
144
1.0
144
0.0
144
0.0
144
0.0
144
0.0
144
1.0
147
0.0208333333333333
147
0.0
147
0.0
147
0.0
147
0.0
147
0.0208333333333333
147
0.0
147
0.0
147
0.0
147
0.0
147
1.0
147
0.0
147
0.0
147
0.0
147
0.0
147
1.0
  0
MATERIAL
  5
11
102
{ACAD_XDICTIONARY
360
12
102
}
102
{ACAD_REACTORS
330
10
102
}
330
10
100
AcDbMaterial
  1
ByLayer
 72
     0
 43
0.0208333333333333
 43
0.0
 43
0.0
 43
0.0
 43
0.0
 43
0.0208333333333333
 43
0.0
 43
0.0
 43
0.0
 43
0.0
 43
1.0
 43
0.0
 43
0.0
 43
0.0
 43
0.0
 43
1.0
 77
     0
 47
0.0208333333333333
 47
0.0
 47
0.0
 47
0.0
 47
0.0
 47
0.0208333333333333
 47
0.0
 47
0.0
 47
0.0
 47
0.0
 47
1.0
 47
0.0
 47
0.0
 47
0.0
 47
0.0
 47
1.0
171
     0
 49
0.0208333333333333
 49
0.0
 49
0.0
 49
0.0
 49
0.0
 49
0.0208333333333333
 49
0.0
 49
0.0
 49
0.0
 49
0.0
 49
1.0
 49
0.0
 49
0.0
 49
0.0
 49
0.0
 49
1.0
175
     0
142
0.0208333333333333
142
0.0
142
0.0
142
0.0
142
0.0
142
0.0208333333333333
142
0.0
142
0.0
142
0.0
142
0.0
142
1.0
142
0.0
142
0.0
142
0.0
142
0.0
142
1.0
179
     0
144
0.0208333333333333
144
0.0
144
0.0
144
0.0
144
0.0
144
0.0208333333333333
144
0.0
144
0.0
144
0.0
144
0.0
144
1.0
144
0.0
144
0.0
144
0.0
144
0.0
144
1.0
147
0.0208333333333333
147
0.0
147
0.0
147
0.0
147
0.0
147
0.0208333333333333
147
0.0
147
0.0
147
0.0
147
0.0
147
1.0
147
0.0
147
0.0
147
0.0
147
0.0
147
1.0
  0
MATERIAL
  5
21
102
{ACAD_XDICTIONARY
360
22
102
}
102
{ACAD_REACTORS
330
10
102
}
330
10
100
AcDbMaterial
  1
Global
 72
     0
 43
0.0208333333333333
 43
0.0
 43
0.0
 43
0.0
 43
0.0
 43
0.0208333333333333
 43
0.0
 43
0.0
 43
0.0
 43
0.0
 43
1.0
 43
0.0
 43
0.0
 43
0.0
 43
0.0
 43
1.0
 77
     0
 47
0.0208333333333333
 47
0.0
 47
0.0
 47
0.0
 47
0.0
 47
0.0208333333333333
 47
0.0
 47
0.0
 47
0.0
 47
0.0
 47
1.0
 47
0.0
 47
0.0
 47
0.0
 47
0.0
 47
1.0
171
     0
 49
0.0208333333333333
 49
0.0
 49
0.0
 49
0.0
 49
0.0
 49
0.0208333333333333
 49
0.0
 49
0.0
 49
0.0
 49
0.0
 49
1.0
 49
0.0
 49
0.0
 49
0.0
 49
0.0
 49
1.0
175
     0
142
0.0208333333333333
142
0.0
142
0.0
142
0.0
142
0.0
142
0.0208333333333333
142
0.0
142
0.0
142
0.0
142
0.0
142
1.0
142
0.0
142
0.0
142
0.0
142
0.0
142
1.0
179
     0
144
0.0208333333333333
144
0.0
144
0.0
144
0.0
144
0.0
144
0.0208333333333333
144
0.0
144
0.0
144
0.0
144
0.0
144
1.0
144
0.0
144
0.0
144
0.0
144
0.0
144
1.0
147
0.0208333333333333
147
0.0
147
0.0
147
0.0
147
0.0
147
0.0208333333333333
147
0.0
147
0.0
147
0.0
147
0.0
147
1.0
147
0.0
147
0.0
147
0.0
147
0.0
147
1.0
  0
MLEADERSTYLE
  5
72
102
{ACAD_REACTORS
330
71
102
}
330
71
100
AcDbMLeaderStyle
170
     2
171
     1
172
     0
 90
        2
 40
0.0
 41
0.0
173
     1
 91
-1056964608
340
66
 92
       -2
290
     1
 42
0.09
291
     1
 43
0.36
  3
Standard
 44
0.18
300

342
60
174
     1
178
     6
175
     1
176
     0
 93
-1056964608
 45
0.18
292
     0
297
     0
 46
0.18
 94
-1056964608
 47
1.0
 49
1.0
140
1.0
293
     1
141
0.0
294
     1
177
     0
142
1.0
295
     0
296
     0
143
0.125
1001
ACAD_MLEADERVER
1070
     2
  0
MLINESTYLE
  5
6B
102
{ACAD_REACTORS
330
6A
102
}
330
6A
100
AcDbMlineStyle
  2
STANDARD
 70
     0
  3

 62
   256
 51
90.0
 52
90.0
 71
     2
 49
0.5
 62
   256
  6
BYLAYER
 49
-0.5
 62
   256
  6
BYLAYER
  0
ACDBPLACEHOLDER
  5
F
102
{ACAD_REACTORS
330
E
102
}
330
E
  0
SCALE
  5
3E
102
{ACAD_REACTORS
330
3D
102
}
330
3D
100
AcDbScale
 70
     0
300
1:1
140
1.0
141
1.0
290
     1
  0
SCALE
  5
3F
102
{ACAD_REACTORS
330
3D
102
}
330
3D
100
AcDbScale
 70
     0
300
1:2
140
1.0
141
2.0
290
     0
  0
SCALE
  5
40
102
{ACAD_REACTORS
330
3D
102
}
330
3D
100
AcDbScale
 70
     0
300
1:4
140
1.0
141
4.0
290
     0
  0
SCALE
  5
41
102
{ACAD_REACTORS
330
3D
102
}
330
3D
100
AcDbScale
 70
     0
300
1:5
140
1.0
141
5.0
290
     0
  0
SCALE
  5
42
102
{ACAD_REACTORS
330
3D
102
}
330
3D
100
AcDbScale
 70
     0
300
1:8
140
1.0
141
8.0
290
     0
  0
SCALE
  5
43
102
{ACAD_REACTORS
330
3D
102
}
330
3D
100
AcDbScale
 70
     0
300
1:10
140
1.0
141
10.0
290
     0
  0
SCALE
  5
44
102
{ACAD_REACTORS
330
3D
102
}
330
3D
100
AcDbScale
 70
     0
300
1:16
140
1.0
141
16.0
290
     0
  0
SCALE
  5
45
102
{ACAD_REACTORS
330
3D
102
}
330
3D
100
AcDbScale
 70
     0
300
1:20
140
1.0
141
20.0
290
     0
  0
SCALE
  5
46
102
{ACAD_REACTORS
330
3D
102
}
330
3D
100
AcDbScale
 70
     0
300
1:30
140
1.0
141
30.0
290
     0
  0
SCALE
  5
47
102
{ACAD_REACTORS
330
3D
102
}
330
3D
100
AcDbScale
 70
     0
300
1:40
140
1.0
141
40.0
290
     0
  0
SCALE
  5
48
102
{ACAD_REACTORS
330
3D
102
}
330
3D
100
AcDbScale
 70
     0
300
1:50
140
1.0
141
50.0
290
     0
  0
SCALE
  5
49
102
{ACAD_REACTORS
330
3D
102
}
330
3D
100
AcDbScale
 70
     0
300
1:100
140
1.0
141
100.0
290
     0
  0
SCALE
  5
4A
102
{ACAD_REACTORS
330
3D
102
}
330
3D
100
AcDbScale
 70
     0
300
2:1
140
2.0
141
1.0
290
     0
  0
SCALE
  5
4B
102
{ACAD_REACTORS
330
3D
102
}
330
3D
100
AcDbScale
 70
     0
300
4:1
140
4.0
141
1.0
290
     0
  0
SCALE
  5
4C
102
{ACAD_REACTORS
330
3D
102
}
330
3D
100
AcDbScale
 70
     0
300
8:1
140
8.0
141
1.0
290
     0
  0
SCALE
  5
4D
102
{ACAD_REACTORS
330
3D
102
}
330
3D
100
AcDbScale
 70
     0
300
10:1
140
10.0
141
1.0
290
     0
  0
SCALE
  5
4E
102
{ACAD_REACTORS
330
3D
102
}
330
3D
100
AcDbScale
 70
     0
300
100:1
140
100.0
141
1.0
290
     0
  0
SCALE
  5
4F
102
{ACAD_REACTORS
330
3D
102
}
330
3D
100
AcDbScale
 70
     0
300
1/128" = 1'-0"
140
0.0078125
141
12.0
290
     0
  0
SCALE
  5
50
102
{ACAD_REACTORS
330
3D
102
}
330
3D
100
AcDbScale
 70
     0
300
1/64" = 1'-0"
140
0.015625
141
12.0
290
     0
  0
SCALE
  5
51
102
{ACAD_REACTORS
330
3D
102
}
330
3D
100
AcDbScale
 70
     0
300
1/32" = 1'-0"
140
0.03125
141
12.0
290
     0
  0
SCALE
  5
52
102
{ACAD_REACTORS
330
3D
102
}
330
3D
100
AcDbScale
 70
     0
300
1/16" = 1'-0"
140
0.0625
141
12.0
290
     0
  0
SCALE
  5
53
102
{ACAD_REACTORS
330
3D
102
}
330
3D
100
AcDbScale
 70
     0
300
3/32" = 1'-0"
140
0.09375
141
12.0
290
     0
  0
SCALE
  5
54
102
{ACAD_REACTORS
330
3D
102
}
330
3D
100
AcDbScale
 70
     0
300
1/8" = 1'-0"
140
0.125
141
12.0
290
     0
  0
SCALE
  5
55
102
{ACAD_REACTORS
330
3D
102
}
330
3D
100
AcDbScale
 70
     0
300
3/16" = 1'-0"
140
0.1875
141
12.0
290
     0
  0
SCALE
  5
56
102
{ACAD_REACTORS
330
3D
102
}
330
3D
100
AcDbScale
 70
     0
300
1/4" = 1'-0"
140
0.25
141
12.0
290
     0
  0
SCALE
  5
57
102
{ACAD_REACTORS
330
3D
102
}
330
3D
100
AcDbScale
 70
     0
300
3/8" = 1'-0"
140
0.375
141
12.0
290
     0
  0
SCALE
  5
58
102
{ACAD_REACTORS
330
3D
102
}
330
3D
100
AcDbScale
 70
     0
300
1/2" = 1'-0"
140
0.5
141
12.0
290
     0
  0
SCALE
  5
59
102
{ACAD_REACTORS
330
3D
102
}
330
3D
100
AcDbScale
 70
     0
300
3/4" = 1'-0"
140
0.75
141
12.0
290
     0
  0
SCALE
  5
5A
102
{ACAD_REACTORS
330
3D
102
}
330
3D
100
AcDbScale
 70
     0
300
1" = 1'-0"
140
1.0
141
12.0
290
     0
  0
SCALE
  5
5B
102
{ACAD_REACTORS
330
3D
102
}
330
3D
100
AcDbScale
 70
     0
300
1-1/2" = 1'-0"
140
1.5
141
12.0
290
     0
  0
SCALE
  5
5C
102
{ACAD_REACTORS
330
3D
102
}
330
3D
100
AcDbScale
 70
     0
300
3" = 1'-0"
140
3.0
141
12.0
290
     0
  0
SCALE
  5
5D
102
{ACAD_REACTORS
330
3D
102
}
330
3D
100
AcDbScale
 70
     0
300
6" = 1'-0"
140
6.0
141
12.0
290
     0
  0
SCALE
  5
5E
102
{ACAD_REACTORS
330
3D
102
}
330
3D
100
AcDbScale
 70
     0
300
1'-0" = 1'-0"
140
12.0
141
12.0
290
     0
  0
ACDBSECTIONVIEWSTYLE
  5
4D8
102
{ACAD_XDICTIONARY
360
69B
102
}
102
{ACAD_REACTORS
330
4D7
102
}
330
4D7
100
AcDbModelDocViewStyle
 70
     0
  3
Metric50
290
     0
100
AcDbSectionViewStyle
 70
     0
 71
     0
 90
      102
 71
     1
340
60
 40
5.0
340
0
340
0
 40
5.0
300
I, O, Q, S, X, Z
 40
10.0
 90
        0
 40
2.5
 90
        0
 71
     2
340
68
 90
       25
340
68
 90
       50
 40
5.0
 40
2.5
 40
5.0
 71
     3
340
60
 40
5.0
 90
        0
 40
15.0
 90
        1
300
%<\AcVar ViewSectionStartId>%-%<\AcVar ViewSectionEndId>% (%<\AcVar ViewScale \f "%sn">%)
 71
     4
300
ANSI31
 40
1.0
 90
        0
290
     0
290
     0
 90
        6
 40
0.0
 40
1.570796326794896
 40
0.2617993877991494
 40
1.308996938995747
 40
-0.2617993877991494
 40
1.832595714594046
  0
TABLESTYLE
  5
70
102
{ACAD_XDICTIONARY
360
429
102
}
102
{ACAD_REACTORS
330
6F
102
}
330
6F
100
AcDbTableStyle
  3
Standard
 70
     0
 71
     0
 40
0.06
 41
0.06
280
     0
281
     0
  7
Standard
140
0.18
170
     2
 62
     0
 63
     7
283
     0
274
    -2
284
     1
 64
     0
275
    -2
285
     1
 65
     0
276
    -2
286
     1
 66
     0
277
    -2
287
     1
 67
     0
278
    -2
288
     1
 68
     0
279
    -2
289
     1
 69
     0
  7
Standard
140
0.25
170
     5
 62
     0
 63
     7
283
     0
274
    -2
284
     1
 64
     0
275
    -2
285
     1
 65
     0
276
    -2
286
     1
 66
     0
277
    -2
287
     1
 67
     0
278
    -2
288
     1
 68
     0
279
    -2
289
     1
 69
     0
  7
Standard
140
0.18
170
     5
 62
     0
 63
     7
283
     0
274
    -2
284
     1
 64
     0
275
    -2
285
     1
 65
     0
276
    -2
286
     1
 66
     0
277
    -2
287
     1
 67
     0
278
    -2
288
     1
 68
     0
279
    -2
289
     1
 69
     0
  0
VISUALSTYLE
  5
2F
102
{ACAD_XDICTIONARY
360
66A
102
}
102
{ACAD_REACTORS
330
29
102
}
330
29
100
AcDbVisualStyle
  2

 70
     4
 71
     0
 72
     2
 73
     0
 90
        0
 40
-0.6
 41
-30.0
 62
     5
 63
     7
 74
     1
 91
        4
 64
     7
 65
   257
 75
     1
175
     1
 42
1.0
 92
        0
 66
   257
 43
1.0
 76
     1
 77
     6
 78
     2
 67
     7
 79
     5
170
     0
171
     0
290
     0
174
     0
 93
        1
 44
0.0
173
     0
291
     0
 45
0.0
1001
ACAD
1000
AcDbSavedByObjectVersion
1070
     0
  0
VISUALSTYLE
  5
31
102
{ACAD_XDICTIONARY
360
66E
102
}
102
{ACAD_REACTORS
330
29
102
}
330
29
100
AcDbVisualStyle
  2

 70
     6
 71
     1
 72
     2
 73
     2
 90
        0
 40
-0.6
 41
-30.0
 62
     5
 63
     7
 74
     2
 91
        2
 64
     7
 65
   257
 75
     2
175
     1
 42
179.0
 92
        0
 66
   257
 43
1.0
 76
     1
 77
     6
 78
     2
 67
     7
 79
     3
170
     0
171
     0
290
     0
174
     0
 93
        1
 44
0.0
173
     0
291
     0
 45
0.0
1001
ACAD
1000
AcDbSavedByObjectVersion
1070
     0
  0
VISUALSTYLE
  5
30
102
{ACAD_XDICTIONARY
360
66C
102
}
102
{ACAD_REACTORS
330
29
102
}
330
29
100
AcDbVisualStyle
  2

 70
     5
 71
     0
 72
     2
 73
     0
 90
        0
 40
-0.6
 41
-30.0
 62
     5
 63
     7
 74
     1
 91
        4
 64
     7
 65
   257
 75
     1
175
     1
 42
1.0
 92
        0
 66
   257
 43
1.0
 76
     1
 77
     6
 78
     2
 67
     7
 79
     5
170
     0
171
     0
290
     0
174
     0
 93
        1
 44
0.0
173
     0
291
     0
 45
0.0
1001
ACAD
1000
AcDbSavedByObjectVersion
1070
     0
  0
VISUALSTYLE
  5
2E
102
{ACAD_XDICTIONARY
360
668
102
}
102
{ACAD_REACTORS
330
29
102
}
330
29
100
AcDbVisualStyle
  2

 70
     7
 71
     1
 72
     0
 73
     1
 90
        0
 40
-0.6
 41
-30.0
 62
     5
 63
     7
 74
     0
 91
        4
 64
     7
 65
   257
 75
     1
175
     1
 42
1.0
 92
        8
 66
     7
 43
1.0
 76
     1
 77
     6
 78
     2
 67
     7
 79
     5
170
     0
171
     0
290
     0
174
     0
 93
        1
 44
0.0
173
     0
291
     1
 45
0.0
1001
ACAD
1000
AcDbSavedByObjectVersion
1070
     0
  0
VISUALSTYLE
  5
35
102
{ACAD_XDICTIONARY
360
676
102
}
102
{ACAD_REACTORS
330
29
102
}
330
29
100
AcDbVisualStyle
  2

 70
    12
 71
     2
 72
     2
 73
     0
 90
        0
 40
-0.6
 41
-30.0
 62
     5
 63
     7
 74
     1
 91
        4
 64
     7
 65
   257
 75
     1
175
     1
 42
1.0
 92
        8
 66
     7
 43
1.0
 76
     1
 77
     6
 78
     2
 67
     7
 79
     5
170
     0
171
     0
290
     0
174
     0
 93
        1
 44
50.0
173
     0
291
     1
 45
0.0
1001
ACAD
1000
AcDbSavedByObjectVersion
1070
     0
  0
VISUALSTYLE
  5
39
102
{ACAD_XDICTIONARY
360
67E
102
}
102
{ACAD_REACTORS
330
29
102
}
330
29
100
AcDbVisualStyle
  2

 70
    16
 71
     2
 72
     2
 73
     3
 90
        0
 40
-0.6
 41
-30.0
 62
     5
 63
     8
 74
     1
 91
        4
 64
     7
 65
   257
 75
     1
175
     1
 42
1.0
 92
        8
 66
     8
 43
1.0
 76
     1
 77
     6
 78
     2
 67
     7
 79
     5
170
     0
171
     0
290
     0
174
     0
 93
        1
 44
0.0
173
     0
291
     1
 45
0.0
1001
ACAD
1000
AcDbSavedByObjectVersion
1070
     0
  0
VISUALSTYLE
  5
32
102
{ACAD_XDICTIONARY
360
670
102
}
102
{ACAD_REACTORS
330
29
102
}
330
29
100
AcDbVisualStyle
  2

 70
     9
 71
     3
 72
     2
 73
     0
 90
        0
 40
-0.6
 41
-30.0
 62
     5
 63
     7
 74
     2
 91
        2
 64
     7
 65
   257
 75
     1
175
     1
 42
179.0
 92
        8
 66
     7
 43
1.0
 76
     1
 77
     6
 78
     2
 67
     7
 79
     3
170
     0
171
     0
290
     0
174
     0
 93
        1
 44
0.0
173
     0
291
     0
 45
0.0
1001
ACAD
1000
AcDbSavedByObjectVersion
1070
     0
  0
VISUALSTYLE
  5
34
102
{ACAD_XDICTIONARY
360
674
102
}
102
{ACAD_REACTORS
330
29
102
}
330
29
100
AcDbVisualStyle
  2

 70
    11
 71
     2
 72
     2
 73
     0
 90
        0
 40
-0.6
 41
-30.0
 62
     5
 63
     7
 74
     1
 91
        4
 64
     7
 65
   257
 75
     1
175
     1
 42
1.0
 92
        8
 66
     7
 43
1.0
 76
     1
 77
     6
 78
     2
 67
     7
 79
     5
170
     0
171
     0
290
     0
174
     0
 93
        1
 44
-50.0
173
     0
291
     1
 45
0.0
1001
ACAD
1000
AcDbSavedByObjectVersion
1070
     0
  0
VISUALSTYLE
  5
3C
102
{ACAD_XDICTIONARY
360
684
102
}
102
{ACAD_REACTORS
330
29
102
}
330
29
100
AcDbVisualStyle
  2

 70
    22
 71
     2
 72
     2
 73
     0
 90
        0
 40
-0.6
 41
-30.0
 62
     5
 63
     7
 74
     1
 91
        4
 64
     7
 65
   257
 75
     1
175
     1
 42
1.0
 92
        8
 66
     7
 43
1.0
 76
     1
 77
     6
 78
     2
 67
     7
 79
     5
170
     0
171
     0
290
     0
174
     0
 93
        1
 44
0.0
173
     0
291
     1
 45
0.0
1001
ACAD
1000
AcDbSavedByObjectVersion
1070
     0
  0
VISUALSTYLE
  5
38
102
{ACAD_XDICTIONARY
360
67C
102
}
102
{ACAD_REACTORS
330
29
102
}
330
29
100
AcDbVisualStyle
  2

 70
    15
 71
     2
 72
     2
 73
     0
 90
        0
 40
-0.6
 41
-30.0
 62
     5
 63
     7
 74
     1
 91
        4
 64
     7
 65
   257
 75
     1
175
     1
 42
1.0
 92
        8
 66
     7
 43
1.0
 76
     1
 77
     6
 78
     2
 67
     7
 79
     5
170
     0
171
     0
290
     0
174
     0
 93
        1
 44
0.0
173
     0
291
     1
 45
0.0
1001
ACAD
1000
AcDbSavedByObjectVersion
1070
     0
  0
VISUALSTYLE
  5
2A
102
{ACAD_XDICTIONARY
360
660
102
}
102
{ACAD_REACTORS
330
29
102
}
330
29
100
AcDbVisualStyle
  2

 70
     0
 71
     2
 72
     1
 73
     1
 90
        2
 40
-0.6
 41
30.0
 62
     5
 63
     7
 74
     0
 91
        4
 64
     7
 65
   257
 75
     1
175
     1
 42
1.0
 92
        8
 66
     7
 43
1.0
 76
     1
 77
     6
 78
     2
 67
     7
 79
     5
170
     0
171
     0
290
     0
174
     0
 93
       13
 44
0.0
173
     0
291
     1
 45
0.0
1001
ACAD
1000
AcDbSavedByObjectVersion
1070
     0
  0
VISUALSTYLE
  5
2B
102
{ACAD_XDICTIONARY
360
662
102
}
102
{ACAD_REACTORS
330
29
102
}
330
29
100
AcDbVisualStyle
  2

 70
     1
 71
     2
 72
     1
 73
     1
 90
        2
 40
-0.6
 41
30.0
 62
     5
 63
     7
 74
     1
 91
        4
 64
     7
 65
   257
 75
     1
175
     1
 42
1.0
 92
        0
 66
   257
 43
1.0
 76
     1
 77
     6
 78
     2
 67
     7
 79
     5
170
     0
171
     0
290
     0
174
     0
 93
       13
 44
0.0
173
     0
291
     1
 45
0.0
1001
ACAD
1000
AcDbSavedByObjectVersion
1070
     0
  0
VISUALSTYLE
  5
2C
102
{ACAD_XDICTIONARY
360
664
102
}
102
{ACAD_REACTORS
330
29
102
}
330
29
100
AcDbVisualStyle
  2

 70
     2
 71
     2
 72
     2
 73
     1
 90
        2
 40
-0.6
 41
30.0
 62
     5
 63
     7
 74
     0
 91
        4
 64
     7
 65
   257
 75
     1
175
     1
 42
1.0
 92
        0
 66
     7
 43
1.0
 76
     1
 77
     6
 78
     2
 67
     7
 79
     5
170
     0
171
     0
290
     0
174
     0
 93
       13
 44
0.0
173
     0
291
     1
 45
0.0
1001
ACAD
1000
AcDbSavedByObjectVersion
1070
     0
  0
VISUALSTYLE
  5
2D
102
{ACAD_XDICTIONARY
360
666
102
}
102
{ACAD_REACTORS
330
29
102
}
330
29
100
AcDbVisualStyle
  2

 70
     3
 71
     2
 72
     2
 73
     1
 90
        2
 40
-0.6
 41
30.0
 62
     5
 63
     7
 74
     1
 91
        4
 64
     7
 65
   257
 75
     1
175
     1
 42
1.0
 92
        0
 66
   257
 43
1.0
 76
     1
 77
     6
 78
     2
 67
     7
 79
     5
170
     0
171
     0
290
     0
174
     0
 93
       13
 44
0.0
173
     0
291
     1
 45
0.0
1001
ACAD
1000
AcDbSavedByObjectVersion
1070
     0
  0
VISUALSTYLE
  5
4D1
102
{ACAD_XDICTIONARY
360
68F
102
}
102
{ACAD_REACTORS
330
29
102
}
330
29
100
AcDbVisualStyle
  2
Hidden
 70
     6
 71
     1
 72
     2
 73
     2
 90
        0
 40
-0.6
 41
-30.0
 62
     5
 63
     7
 74
     2
 91
        2
 64
     7
 65
   257
 75
     2
175
     1
 42
40.0
 92
        0
 66
   257
 43
1.0
 76
     1
 77
     6
 78
     2
 67
     7
 79
     3
170
     0
171
     0
290
     0
174
     0
 93
        1
 44
0.0
173
     0
291
     0
 45
0.0
1001
ACAD
1000
AcDbSavedByObjectVersion
1070
     0
  0
VISUALSTYLE
  5
3A
102
{ACAD_XDICTIONARY
360
680
102
}
102
{ACAD_REACTORS
330
29
102
}
330
29
100
AcDbVisualStyle
  2

 70
    20
 71
     2
 72
     2
 73
     0
 90
        0
 40
-0.6
 41
-30.0
 62
     5
 63
     7
 74
     1
 91
        4
 64
     7
 65
   257
 75
     1
175
     1
 42
1.0
 92
       10
 66
     7
 43
1.0
 76
     1
 77
     6
 78
     2
 67
     7
 79
     5
170
     0
171
     0
290
     0
174
     0
 93
        1
 44
0.0
173
     0
291
     1
 45
0.0
1001
ACAD
1000
AcDbSavedByObjectVersion
1070
     0
  0
VISUALSTYLE
  5
37
102
{ACAD_XDICTIONARY
360
67A
102
}
102
{ACAD_REACTORS
330
29
102
}
330
29
100
AcDbVisualStyle
  2

 70
    14
 71
     2
 72
     2
 73
     0
 90
        0
 40
-0.6
 41
-30.0
 62
     5
 63
     7
 74
     1
 91
        4
 64
     7
 65
   257
 75
     7
175
     7
 42
1.0
 92
        8
 66
     7
 43
1.0
 76
     1
 77
     6
 78
     2
 67
     7
 79
     5
170
     0
171
     0
290
     0
174
     0
 93
        1
 44
0.0
173
     0
291
     1
 45
0.0
1001
ACAD
1000
AcDbSavedByObjectVersion
1070
     0
  0
VISUALSTYLE
  5
3B
102
{ACAD_XDICTIONARY
360
682
102
}
102
{ACAD_REACTORS
330
29
102
}
330
29
100
AcDbVisualStyle
  2

 70
    21
 71
     2
 72
     2
 73
     0
 90
        0
 40
-0.6
 41
-30.0
 62
     5
 63
     7
 74
     1
 91
        4
 64
     7
 65
   257
 75
     1
175
     1
 42
1.0
 92
        9
 66
     7
 43
1.0
 76
     1
 77
     6
 78
     2
 67
     7
 79
     5
170
     0
171
     0
290
     0
174
     0
 93
        1
 44
0.0
173
     0
291
     1
 45
0.0
1001
ACAD
1000
AcDbSavedByObjectVersion
1070
     0
  0
VISUALSTYLE
  5
33
102
{ACAD_XDICTIONARY
360
672
102
}
102
{ACAD_REACTORS
330
29
102
}
330
29
100
AcDbVisualStyle
  2

 70
     8
 71
     2
 72
     2
 73
     0
 90
        0
 40
-0.6
 41
-30.0
 62
     5
 63
     7
 74
     1
 91
        0
 64
     7
 65
   257
 75
     1
175
     1
 42
1.0
 92
        8
 66
     8
 43
1.0
 76
     1
 77
     6
 78
     2
 67
     7
 79
     5
170
     0
171
     0
290
     0
174
     0
 93
       13
 44
0.0
173
     0
291
     0
 45
0.0
1001
ACAD
1000
AcDbSavedByObjectVersion
1070
     0
  0
VISUALSTYLE
  5
4D6
102
{ACAD_XDICTIONARY
360
699
102
}
102
{ACAD_REACTORS
330
29
102
}
330
29
100
AcDbVisualStyle
  2
Shaded
 70
    27
 71
     2
 72
     2
 73
     1
 90
        2
 40
-0.6
 41
30.0
 62
     5
 63
     7
 74
     0
 91
        4
 64
     7
 65
   257
 75
     1
175
     1
 42
1.0
 92
        8
 66
   257
 43
1.0
 76
     1
 77
     6
 78
     2
 67
     8
 79
     3
170
     0
171
     0
290
     0
174
     0
 93
        5
 44
0.0
173
     0
291
     0
 45
0.0
1001
ACAD
1000
AcDbSavedByObjectVersion
1070
     0
  0
VISUALSTYLE
  5
4D5
102
{ACAD_XDICTIONARY
360
697
102
}
102
{ACAD_REACTORS
330
29
102
}
330
29
100
AcDbVisualStyle
  2
Shaded with edges
 70
    26
 71
     2
 72
     2
 73
     1
 90
        2
 40
-0.6
 41
30.0
 62
     5
 63
     7
 74
     1
 91
        2
 64
     7
 65
   257
 75
     2
175
     1
 42
1.0
 92
        8
 66
   257
 43
1.0
 76
     1
 77
     6
 78
     2
 67
     7
 79
     3
170
     0
171
     0
290
     0
174
     0
 93
        5
 44
0.0
173
     0
291
     0
 45
0.0
1001
ACAD
1000
AcDbSavedByObjectVersion
1070
     0
  0
VISUALSTYLE
  5
4D2
102
{ACAD_XDICTIONARY
360
691
102
}
102
{ACAD_REACTORS
330
29
102
}
330
29
100
AcDbVisualStyle
  2
Shades of Gray
 70
    23
 71
     2
 72
     2
 73
     3
 90
        0
 40
-0.6
 41
-30.0
 62
     5
 63
     7
 74
     2
 91
        2
 64
     7
 65
     7
 75
     1
175
     1
 42
40.0
 92
        8
 66
     7
 43
1.0
 76
     1
 77
     6
 78
     2
 67
     7
 79
     3
170
     0
171
     0
290
     0
174
     0
 93
        1
 44
0.0
173
     0
291
     0
 45
0.0
1001
ACAD
1000
AcDbSavedByObjectVersion
1070
     0
  0
VISUALSTYLE
  5
4D3
102
{ACAD_XDICTIONARY
360
693
102
}
102
{ACAD_REACTORS
330
29
102
}
330
29
100
AcDbVisualStyle
  2
Sketchy
 70
    24
 71
     1
 72
     2
 73
     2
 90
        0
 40
-0.6
 41
-30.0
 62
     5
 63
     7
 74
     2
 91
        2
 64
     7
 65
     7
 75
     1
175
     1
 42
40.0
 92
       11
 66
     7
 43
1.0
 76
     1
 77
     6
 78
     2
 67
     7
 79
     6
170
     0
171
     0
290
     0
174
     0
 93
        1
 44
0.0
173
     0
291
     0
 45
0.0
1001
ACAD
1000
AcDbSavedByObjectVersion
1070
     0
  0
VISUALSTYLE
  5
36
102
{ACAD_XDICTIONARY
360
678
102
}
102
{ACAD_REACTORS
330
29
102
}
330
29
100
AcDbVisualStyle
  2

 70
    13
 71
     2
 72
     2
 73
     0
 90
        0
 40
-0.6
 41
-30.0
 62
     5
 63
     7
 74
     1
 91
        4
 64
     7
 65
   257
 75
     1
175
     1
 42
1.0
 92
       12
 66
     7
 43
1.0
 76
     1
 77
     6
 78
     2
 67
     7
 79
     5
170
     0
171
     0
290
     0
174
     0
 93
        1
 44
0.0
173
     0
291
     1
 45
0.0
1001
ACAD
1000
AcDbSavedByObjectVersion
1070
     0
  0
VISUALSTYLE
  5
4D0
102
{ACAD_XDICTIONARY
360
68D
102
}
102
{ACAD_REACTORS
330
29
102
}
330
29
100
AcDbVisualStyle
  2
Wireframe
 70
     5
 71
     0
 72
     2
 73
     0
 90
        0
 40
-0.6
 41
-30.0
 62
     5
 63
     7
 74
     1
 91
        4
 64
     7
 65
   257
 75
     1
175
     1
 42
1.0
 92
        0
 66
   257
 43
1.0
 76
     1
 77
     6
 78
     2
 67
     7
 79
     3
170
     0
171
     0
290
     0
174
     0
 93
        1
 44
0.0
173
     0
291
     0
 45
0.0
1001
ACAD
1000
AcDbSavedByObjectVersion
1070
     0
  0
VISUALSTYLE
  5
4D4
102
{ACAD_XDICTIONARY
360
695
102
}
102
{ACAD_REACTORS
330
29
102
}
330
29
100
AcDbVisualStyle
  2
X-Ray
 70
    25
 71
     2
 72
     2
 73
     1
 90
        1
 40
0.5
 41
-30.0
 62
     5
 63
     7
 74
     1
 91
        0
 64
     7
 65
   257
 75
     1
175
     1
 42
1.0
 92
        8
 66
     7
 43
1.0
 76
     1
 77
     6
 78
     2
 67
     7
 79
     3
170
     0
171
     0
290
     0
174
     0
 93
       13
 44
0.0
173
     0
291
     0
 45
0.0
1001
ACAD
1000
AcDbSavedByObjectVersion
1070
     0
  0
DICTIONARYVAR
  5
424
102
{ACAD_REACTORS
330
420
102
}
330
420
100
DictionaryVariables
280
     0
  1
1:1
  0
DICTIONARYVAR
  5
422
102
{ACAD_REACTORS
330
420
102
}
330
420
100
DictionaryVariables
280
     0
  1
STANDARD
  0
DICTIONARYVAR
  5
421
102
{ACAD_REACTORS
330
420
102
}
330
420
100
DictionaryVariables
280
     0
  1
STANDARD
  0
DICTIONARYVAR
  5
606
102
{ACAD_REACTORS
330
420
102
}
330
420
100
DictionaryVariables
280
     0
  1
Metric50
  0
DICTIONARYVAR
  5
607
102
{ACAD_REACTORS
330
420
102
}
330
420
100
DictionaryVariables
280
     0
  1
Metric50
  0
DICTIONARYVAR
  5
60B
102
{ACAD_REACTORS
330
420
102
}
330
420
100
DictionaryVariables
280
     0
  1
1
  0
DICTIONARYVAR
  5
60A
102
{ACAD_REACTORS
330
420
102
}
330
420
100
DictionaryVariables
280
     0
  1
1
  0
DICTIONARYVAR
  5
609
102
{ACAD_REACTORS
330
420
102
}
330
420
100
DictionaryVariables
280
     0
  1
0
  0
DICTIONARYVAR
  5
426
102
{ACAD_REACTORS
330
420
102
}
330
420
100
DictionaryVariables
280
     0
  1
0
  0
DICTIONARYVAR
  5
427
102
{ACAD_REACTORS
330
420
102
}
330
420
100
DictionaryVariables
280
     0
  1
0
  0
DICTIONARYVAR
  5
425
102
{ACAD_REACTORS
330
420
102
}
330
420
100
DictionaryVariables
280
     0
  1
2
  0
DICTIONARYVAR
  5
423
102
{ACAD_REACTORS
330
420
102
}
330
420
100
DictionaryVariables
280
     0
  1
1
  0
DICTIONARYVAR
  5
608
102
{ACAD_REACTORS
330
420
102
}
330
420
100
DictionaryVariables
280
     0
  1
127
  0
DICTIONARYVAR
  5
60C
102
{ACAD_REACTORS
330
420
102
}
330
420
100
DictionaryVariables
280
     0
  1
2
  0
DICTIONARY
  5
69D
330
4DA
100
AcDbDictionary
280
     1
281
     1
  3
ACAD_XREC_ROUNDTRIP
360
69E
  0
DICTIONARY
  5
687
330
76
100
AcDbDictionary
280
     1
281
     1
  3
ACAD_XREC_ROUNDTRIP
360
688
  0
DICTIONARY
  5
68B
330
7E
100
AcDbDictionary
280
     1
281
     1
  3
ACAD_XREC_ROUNDTRIP
360
68C
  0
DICTIONARY
  5
689
330
7A
100
AcDbDictionary
280
     1
281
     1
  3
ACAD_XREC_ROUNDTRIP
360
68A
  0
DICTIONARY
  5
1A
330
19
100
AcDbDictionary
280
     1
281
     1
  3
ACAD_XREC_ROUNDTRIP
360
4A3
  3
BUMPTILE
360
1C
  3
DIFFUSETILE
360
1B
  3
OPACITYTILE
360
1F
  3
REFLECTIONTILE
360
1E
  3
REFRACTIONTILE
360
20
  3
SPECULARTILE
360
1D
  0
DICTIONARY
  5
12
330
11
100
AcDbDictionary
280
     1
281
     1
  3
ACAD_XREC_ROUNDTRIP
360
4A2
  3
BUMPTILE
360
14
  3
DIFFUSETILE
360
13
  3
OPACITYTILE
360
17
  3
REFLECTIONTILE
360
16
  3
REFRACTIONTILE
360
18
  3
SPECULARTILE
360
15
  0
DICTIONARY
  5
22
330
21
100
AcDbDictionary
280
     1
281
     1
  3
ACAD_XREC_ROUNDTRIP
360
4A4
  3
BUMPTILE
360
24
  3
DIFFUSETILE
360
23
  3
OPACITYTILE
360
27
  3
REFLECTIONTILE
360
26
  3
REFRACTIONTILE
360
28
  3
SPECULARTILE
360
25
  0
DICTIONARY
  5
69B
330
4D8
100
AcDbDictionary
280
     1
281
     1
  3
ACAD_XREC_ROUNDTRIP
360
69C
  0
DICTIONARY
  5
429
330
70
100
AcDbDictionary
280
     1
281
     1
  3
ACAD_ROUNDTRIP_2008_TABLESTYLE_CELLSTYLEMAP
360
60E
  3
ACAD_XREC_ROUNDTRIP
360
686
  0
DICTIONARY
  5
66A
330
2F
100
AcDbDictionary
280
     1
281
     1
  3
ACAD_XREC_ROUNDTRIP
360
66B
  0
DICTIONARY
  5
66E
330
31
100
AcDbDictionary
280
     1
281
     1
  3
ACAD_XREC_ROUNDTRIP
360
66F
  0
DICTIONARY
  5
66C
330
30
100
AcDbDictionary
280
     1
281
     1
  3
ACAD_XREC_ROUNDTRIP
360
66D
  0
DICTIONARY
  5
668
330
2E
100
AcDbDictionary
280
     1
281
     1
  3
ACAD_XREC_ROUNDTRIP
360
669
  0
DICTIONARY
  5
676
330
35
100
AcDbDictionary
280
     1
281
     1
  3
ACAD_XREC_ROUNDTRIP
360
677
  0
DICTIONARY
  5
67E
330
39
100
AcDbDictionary
280
     1
281
     1
  3
ACAD_XREC_ROUNDTRIP
360
67F
  0
DICTIONARY
  5
670
330
32
100
AcDbDictionary
280
     1
281
     1
  3
ACAD_XREC_ROUNDTRIP
360
671
  0
DICTIONARY
  5
674
330
34
100
AcDbDictionary
280
     1
281
     1
  3
ACAD_XREC_ROUNDTRIP
360
675
  0
DICTIONARY
  5
684
330
3C
100
AcDbDictionary
280
     1
281
     1
  3
ACAD_XREC_ROUNDTRIP
360
685
  0
DICTIONARY
  5
67C
330
38
100
AcDbDictionary
280
     1
281
     1
  3
ACAD_XREC_ROUNDTRIP
360
67D
  0
DICTIONARY
  5
660
330
2A
100
AcDbDictionary
280
     1
281
     1
  3
ACAD_XREC_ROUNDTRIP
360
661
  0
DICTIONARY
  5
662
330
2B
100
AcDbDictionary
280
     1
281
     1
  3
ACAD_XREC_ROUNDTRIP
360
663
  0
DICTIONARY
  5
664
330
2C
100
AcDbDictionary
280
     1
281
     1
  3
ACAD_XREC_ROUNDTRIP
360
665
  0
DICTIONARY
  5
666
330
2D
100
AcDbDictionary
280
     1
281
     1
  3
ACAD_XREC_ROUNDTRIP
360
667
  0
DICTIONARY
  5
68F
330
4D1
100
AcDbDictionary
280
     1
281
     1
  3
ACAD_XREC_ROUNDTRIP
360
690
  0
DICTIONARY
  5
680
330
3A
100
AcDbDictionary
280
     1
281
     1
  3
ACAD_XREC_ROUNDTRIP
360
681
  0
DICTIONARY
  5
67A
330
37
100
AcDbDictionary
280
     1
281
     1
  3
ACAD_XREC_ROUNDTRIP
360
67B
  0
DICTIONARY
  5
682
330
3B
100
AcDbDictionary
280
     1
281
     1
  3
ACAD_XREC_ROUNDTRIP
360
683
  0
DICTIONARY
  5
672
330
33
100
AcDbDictionary
280
     1
281
     1
  3
ACAD_XREC_ROUNDTRIP
360
673
  0
DICTIONARY
  5
699
330
4D6
100
AcDbDictionary
280
     1
281
     1
  3
ACAD_XREC_ROUNDTRIP
360
69A
  0
DICTIONARY
  5
697
330
4D5
100
AcDbDictionary
280
     1
281
     1
  3
ACAD_XREC_ROUNDTRIP
360
698
  0
DICTIONARY
  5
691
330
4D2
100
AcDbDictionary
280
     1
281
     1
  3
ACAD_XREC_ROUNDTRIP
360
692
  0
DICTIONARY
  5
693
330
4D3
100
AcDbDictionary
280
     1
281
     1
  3
ACAD_XREC_ROUNDTRIP
360
694
  0
DICTIONARY
  5
678
330
36
100
AcDbDictionary
280
     1
281
     1
  3
ACAD_XREC_ROUNDTRIP
360
679
  0
DICTIONARY
  5
68D
330
4D0
100
AcDbDictionary
280
     1
281
     1
  3
ACAD_XREC_ROUNDTRIP
360
68E
  0
DICTIONARY
  5
695
330
4D4
100
AcDbDictionary
280
     1
281
     1
  3
ACAD_XREC_ROUNDTRIP
360
696
  0
XRECORD
  5
69E
102
{ACAD_REACTORS
330
69D
102
}
330
69D
100
AcDbXrecord
280
     1
102
DISPLAYNAME
  1
Metric50
102
FLAGS
 90
        0
  0
XRECORD
  5
688
102
{ACAD_REACTORS
330
687
102
}
330
687
100
AcDbXrecord
280
     1
102
SHADEPLOT
 70
     0
102
SHADEPLOTRESLEVEL
 70
     2
102
SHADEPLOTCUSTOMDPI
 70
   300
  0
XRECORD
  5
68C
102
{ACAD_REACTORS
330
68B
102
}
330
68B
100
AcDbXrecord
280
     1
102
SHADEPLOT
 70
     0
102
SHADEPLOTRESLEVEL
 70
     2
102
SHADEPLOTCUSTOMDPI
 70
   300
  0
XRECORD
  5
68A
102
{ACAD_REACTORS
330
689
102
}
330
689
100
AcDbXrecord
280
     1
102
SHADEPLOT
 70
     0
102
SHADEPLOTRESLEVEL
 70
     2
102
SHADEPLOTCUSTOMDPI
 70
   300
  0
XRECORD
  5
4A3
102
{ACAD_REACTORS
330
1A
102
}
330
1A
100
AcDbXrecord
280
     1
102
MATERIAL
148
0.0
149
0.0
149
0.0
 93
        0
 94
      127
282
     0
 72
     0
 77
     0
171
     0
175
     0
179
     0
273
     0
  0
XRECORD
  5
1C
102
{ACAD_REACTORS
330
1A
102
}
330
1A
100
AcDbXrecord
280
     1
270
     1
271
     1
  0
XRECORD
  5
1B
102
{ACAD_REACTORS
330
1A
102
}
330
1A
100
AcDbXrecord
280
     1
270
     1
271
     1
  0
XRECORD
  5
1F
102
{ACAD_REACTORS
330
1A
102
}
330
1A
100
AcDbXrecord
280
     1
270
     1
271
     1
  0
XRECORD
  5
1E
102
{ACAD_REACTORS
330
1A
102
}
330
1A
100
AcDbXrecord
280
     1
270
     1
271
     1
  0
XRECORD
  5
20
102
{ACAD_REACTORS
330
1A
102
}
330
1A
100
AcDbXrecord
280
     1
270
     1
271
     1
  0
XRECORD
  5
1D
102
{ACAD_REACTORS
330
1A
102
}
330
1A
100
AcDbXrecord
280
     1
270
     1
271
     1
  0
XRECORD
  5
4A2
102
{ACAD_REACTORS
330
12
102
}
330
12
100
AcDbXrecord
280
     1
102
MATERIAL
148
0.0
149
0.0
149
0.0
 93
        0
 94
      127
282
     0
 72
     0
 77
     0
171
     0
175
     0
179
     0
273
     0
  0
XRECORD
  5
14
102
{ACAD_REACTORS
330
12
102
}
330
12
100
AcDbXrecord
280
     1
270
     1
271
     1
  0
XRECORD
  5
13
102
{ACAD_REACTORS
330
12
102
}
330
12
100
AcDbXrecord
280
     1
270
     1
271
     1
  0
XRECORD
  5
17
102
{ACAD_REACTORS
330
12
102
}
330
12
100
AcDbXrecord
280
     1
270
     1
271
     1
  0
XRECORD
  5
16
102
{ACAD_REACTORS
330
12
102
}
330
12
100
AcDbXrecord
280
     1
270
     1
271
     1
  0
XRECORD
  5
18
102
{ACAD_REACTORS
330
12
102
}
330
12
100
AcDbXrecord
280
     1
270
     1
271
     1
  0
XRECORD
  5
15
102
{ACAD_REACTORS
330
12
102
}
330
12
100
AcDbXrecord
280
     1
270
     1
271
     1
  0
XRECORD
  5
4A4
102
{ACAD_REACTORS
330
22
102
}
330
22
100
AcDbXrecord
280
     1
102
MATERIAL
148
0.0
149
0.0
149
0.0
 93
        0
 94
      127
282
     0
 72
     0
 77
     0
171
     0
175
     0
179
     0
273
     0
  0
XRECORD
  5
24
102
{ACAD_REACTORS
330
22
102
}
330
22
100
AcDbXrecord
280
     1
270
     1
271
     1
  0
XRECORD
  5
23
102
{ACAD_REACTORS
330
22
102
}
330
22
100
AcDbXrecord
280
     1
270
     1
271
     1
  0
XRECORD
  5
27
102
{ACAD_REACTORS
330
22
102
}
330
22
100
AcDbXrecord
280
     1
270
     1
271
     1
  0
XRECORD
  5
26
102
{ACAD_REACTORS
330
22
102
}
330
22
100
AcDbXrecord
280
     1
270
     1
271
     1
  0
XRECORD
  5
28
102
{ACAD_REACTORS
330
22
102
}
330
22
100
AcDbXrecord
280
     1
270
     1
271
     1
  0
XRECORD
  5
25
102
{ACAD_REACTORS
330
22
102
}
330
22
100
AcDbXrecord
280
     1
270
     1
271
     1
  0
XRECORD
  5
69C
102
{ACAD_REACTORS
330
69B
102
}
330
69B
100
AcDbXrecord
280
     1
102
DISPLAYNAME
  1
Metric50
102
FLAGS
 90
        0
  0
CELLSTYLEMAP
  5
60E
102
{ACAD_REACTORS
330
429
102
}
330
429
100
AcDbCellStyleMap
 90
        3
300
CELLSTYLE
  1
TABLEFORMAT_BEGIN
 90
        5
170
     1
 91
        0
 92
    32768
 62
   257
 93
        1
300
CONTENTFORMAT
  1
CONTENTFORMAT_BEGIN
 90
        0
 91
        0
 92
      512
 93
        0
300

 40
0.0
140
1.0
 94
        5
 62
     0
340
60
144
0.25
309
CONTENTFORMAT_END
171
     1
301
MARGIN
  1
CELLMARGIN_BEGIN
 40
0.06
 40
0.06
 40
0.06
 40
0.06
 40
0.18
 40
0.18
309
CELLMARGIN_END
 94
        6
 95
        1
302
GRIDFORMAT
  1
GRIDFORMAT_BEGIN
 90
        0
 91
        1
 62
     0
 92
       -2
340
0
 93
        0
 40
0.045
309
GRIDFORMAT_END
 95
        2
302
GRIDFORMAT
  1
GRIDFORMAT_BEGIN
 90
        0
 91
        1
 62
     0
 92
       -2
340
0
 93
        0
 40
0.045
309
GRIDFORMAT_END
 95
        4
302
GRIDFORMAT
  1
GRIDFORMAT_BEGIN
 90
        0
 91
        1
 62
     0
 92
       -2
340
0
 93
        0
 40
0.045
309
GRIDFORMAT_END
 95
        8
302
GRIDFORMAT
  1
GRIDFORMAT_BEGIN
 90
        0
 91
        1
 62
     0
 92
       -2
340
0
 93
        0
 40
0.045
309
GRIDFORMAT_END
 95
       16
302
GRIDFORMAT
  1
GRIDFORMAT_BEGIN
 90
        0
 91
        1
 62
     0
 92
       -2
340
0
 93
        0
 40
0.045
309
GRIDFORMAT_END
 95
       32
302
GRIDFORMAT
  1
GRIDFORMAT_BEGIN
 90
        0
 91
        1
 62
     0
 92
       -2
340
0
 93
        0
 40
0.045
309
GRIDFORMAT_END
309
TABLEFORMAT_END
  1
CELLSTYLE_BEGIN
 90
        1
 91
        1
300
_TITLE
309
CELLSTYLE_END
300
CELLSTYLE
  1
TABLEFORMAT_BEGIN
 90
        5
170
     1
 91
        0
 92
        0
 62
   257
 93
        1
300
CONTENTFORMAT
  1
CONTENTFORMAT_BEGIN
 90
        0
 91
        0
 92
      512
 93
        0
300

 40
0.0
140
1.0
 94
        5
 62
     0
340
60
144
0.18
309
CONTENTFORMAT_END
171
     1
301
MARGIN
  1
CELLMARGIN_BEGIN
 40
0.06
 40
0.06
 40
0.06
 40
0.06
 40
0.18
 40
0.18
309
CELLMARGIN_END
 94
        6
 95
        1
302
GRIDFORMAT
  1
GRIDFORMAT_BEGIN
 90
        0
 91
        1
 62
     0
 92
       -2
340
0
 93
        0
 40
0.045
309
GRIDFORMAT_END
 95
        2
302
GRIDFORMAT
  1
GRIDFORMAT_BEGIN
 90
        0
 91
        1
 62
     0
 92
       -2
340
0
 93
        0
 40
0.045
309
GRIDFORMAT_END
 95
        4
302
GRIDFORMAT
  1
GRIDFORMAT_BEGIN
 90
        0
 91
        1
 62
     0
 92
       -2
340
0
 93
        0
 40
0.045
309
GRIDFORMAT_END
 95
        8
302
GRIDFORMAT
  1
GRIDFORMAT_BEGIN
 90
        0
 91
        1
 62
     0
 92
       -2
340
0
 93
        0
 40
0.045
309
GRIDFORMAT_END
 95
       16
302
GRIDFORMAT
  1
GRIDFORMAT_BEGIN
 90
        0
 91
        1
 62
     0
 92
       -2
340
0
 93
        0
 40
0.045
309
GRIDFORMAT_END
 95
       32
302
GRIDFORMAT
  1
GRIDFORMAT_BEGIN
 90
        0
 91
        1
 62
     0
 92
       -2
340
0
 93
        0
 40
0.045
309
GRIDFORMAT_END
309
TABLEFORMAT_END
  1
CELLSTYLE_BEGIN
 90
        2
 91
        1
300
_HEADER
309
CELLSTYLE_END
300
CELLSTYLE
  1
TABLEFORMAT_BEGIN
 90
        5
170
     1
 91
        0
 92
        0
 62
   257
 93
        1
300
CONTENTFORMAT
  1
CONTENTFORMAT_BEGIN
 90
        0
 91
        0
 92
      512
 93
        0
300

 40
0.0
140
1.0
 94
        2
 62
     0
340
60
144
0.18
309
CONTENTFORMAT_END
171
     1
301
MARGIN
  1
CELLMARGIN_BEGIN
 40
0.06
 40
0.06
 40
0.06
 40
0.06
 40
0.18
 40
0.18
309
CELLMARGIN_END
 94
        6
 95
        1
302
GRIDFORMAT
  1
GRIDFORMAT_BEGIN
 90
        0
 91
        1
 62
     0
 92
       -2
340
0
 93
        0
 40
0.045
309
GRIDFORMAT_END
 95
        2
302
GRIDFORMAT
  1
GRIDFORMAT_BEGIN
 90
        0
 91
        1
 62
     0
 92
       -2
340
0
 93
        0
 40
0.045
309
GRIDFORMAT_END
 95
        4
302
GRIDFORMAT
  1
GRIDFORMAT_BEGIN
 90
        0
 91
        1
 62
     0
 92
       -2
340
0
 93
        0
 40
0.045
309
GRIDFORMAT_END
 95
        8
302
GRIDFORMAT
  1
GRIDFORMAT_BEGIN
 90
        0
 91
        1
 62
     0
 92
       -2
340
0
 93
        0
 40
0.045
309
GRIDFORMAT_END
 95
       16
302
GRIDFORMAT
  1
GRIDFORMAT_BEGIN
 90
        0
 91
        1
 62
     0
 92
       -2
340
0
 93
        0
 40
0.045
309
GRIDFORMAT_END
 95
       32
302
GRIDFORMAT
  1
GRIDFORMAT_BEGIN
 90
        0
 91
        1
 62
     0
 92
       -2
340
0
 93
        0
 40
0.045
309
GRIDFORMAT_END
309
TABLEFORMAT_END
  1
CELLSTYLE_BEGIN
 90
        3
 91
        2
300
_DATA
309
CELLSTYLE_END
  0
XRECORD
  5
686
102
{ACAD_REACTORS
330
429
102
}
330
429
100
AcDbXrecord
280
     1
102
ACAD_ROUNDTRIP_PRE2007_TABLESTYLE
 90
      512
 91
        0
  1

 92
      512
 93
        0
  2

 94
      512
 95
        0
  3

  0
XRECORD
  5
66B
102
{ACAD_REACTORS
330
66A
102
}
330
66A
100
AcDbXrecord
280
     1
102
RTVSPost2010Prop28
280
     1
102
RTVSPost2010PropOp28
 70
     1
102
RTVSPost2010Prop29
280
     1
102
RTVSPost2010PropOp29
 70
     1
102
RTVSPost2010Prop30
280
     0
102
RTVSPost2010PropOp30
 70
     1
102
RTVSPost2010Prop31
280
     0
102
RTVSPost2010PropOp31
 70
     1
102
RTVSPost2010Prop32
280
     0
102
RTVSPost2010PropOp32
 70
     1
102
RTVSPost2010Prop33
280
     0
102
RTVSPost2010PropOp33
 70
     1
102
RTVSPost2010Prop34
280
     0
102
RTVSPost2010PropOp34
 70
     1
102
RTVSPost2010Prop35
280
     0
102
RTVSPost2010PropOp35
 70
     1
102
RTVSPost2010Prop36
280
     0
102
RTVSPost2010PropOp36
 70
     1
102
RTVSPost2010Prop37
 90
       50
102
RTVSPost2010PropOp37
 70
     1
102
RTVSPost2010Prop38
140
0.0
102
RTVSPost2010PropOp38
 70
     1
102
RTVSPost2010Prop39
140
1.0
102
RTVSPost2010PropOp39
 70
     1
102
RTVSPost2010Prop40
 90
        0
102
RTVSPost2010PropOp40
 70
     1
102
RTVSPost2010Prop41ColorIndex
 90
       18
102
RTVSPost2010Prop41ColorRGB
 90
        0
102
RTVSPost2010PropOp41
 70
     1
102
RTVSPost2010Prop42
 90
       50
102
RTVSPost2010PropOp42
 70
     1
102
RTVSPost2010Prop43
 90
        3
102
RTVSPost2010PropOp43
 70
     1
102
RTVSPost2010Prop44ColorIndex
 90
        5
102
RTVSPost2010Prop44ColorRGB
 90
      255
102
RTVSPost2010PropOp44
 70
     1
102
RTVSPost2010Prop45
280
     0
102
RTVSPost2010PropOp45
 70
     1
102
RTVSPost2010Prop46
 90
       50
102
RTVSPost2010PropOp46
 70
     1
102
RTVSPost2010Prop47
 90
       50
102
RTVSPost2010PropOp47
 70
     1
102
RTVSPost2010Prop48
 90
       50
102
RTVSPost2010PropOp48
 70
     1
102
RTVSPost2010Prop49
280
     0
102
RTVSPost2010PropOp49
 70
     1
102
RTVSPost2010Prop50
 90
       50
102
RTVSPost2010PropOp50
 70
     1
102
RTVSPost2010Prop51ColorIndex
 90
      256
102
RTVSPost2010Prop51ColorRGB
 90
-16777216
102
RTVSPost2010PropOp51
 70
     0
102
RTVSPost2010Prop52
140
1.0
102
RTVSPost2010PropOp52
 70
     0
102
RTVSPost2010Prop53
 90
        2
102
RTVSPost2010PropOp53
 70
     1
102
RTVSPost2010Prop54
  1
strokes_ogs.tif
102
RTVSPost2010PropOp54
 70
     1
102
RTVSPost2010Prop55
280
     0
102
RTVSPost2010PropOp55
 70
     1
102
RTVSPost2010Prop56
140
1.0
102
RTVSPost2010PropOp56
 70
     1
102
RTVSPost2010Prop57
140
1.0
102
RTVSPost2010PropOp57
 70
     1
102
RTVSPropertyOp0
 70
     1
102
RTVSPropertyOp1
 70
     1
102
RTVSPropertyOp2
 70
     1
102
RTVSPropertyOp3
 70
     1
102
RTVSPropertyOp4
 70
     1
102
RTVSPropertyOp5
 70
     1
102
RTVSPropertyOp6
 70
     1
102
RTVSPropertyOp7
 70
     1
102
RTVSPropertyOp8
 70
     1
102
RTVSPropertyOp9
 70
     1
102
RTVSPropertyOp10
 70
     1
102
RTVSPropertyOp11
 70
     1
102
RTVSPropertyOp12
 70
     1
102
RTVSPropertyOp13
 70
     1
102
RTVSPropertyOp14
 70
     1
102
RTVSPropertyOp15
 70
     1
102
RTVSPropertyOp16
 70
     1
102
RTVSPropertyOp17
 70
     1
102
RTVSPropertyOp18
 70
     1
102
RTVSPropertyOp19
 70
     1
102
RTVSPropertyOp20
 70
     1
102
RTVSPropertyOp21
 70
     1
102
RTVSPropertyOp22
 70
     1
102
RTVSPropertyOp23
 70
     1
102
RTVSPropertyOp24
 70
     1
102
RTVSPropertyOp25
 70
     1
102
RTVSPropertyOp26
 70
     1
102
RTVSPropertyOp27
 70
     1
102
RTVSPropertyOp28
 70
     1
102
RTVSPropertyOp29
 70
     1
102
RTVSPropertyOp30
 70
     1
102
RTVSPropertyOp31
 70
     1
102
RTVSPropertyOp32
 70
     1
102
RTVSPropertyOp33
 70
     1
102
RTVSPropertyOp34
 70
     1
102
RTVSPropertyOp35
 70
     1
102
RTVSPropertyOp36
 70
     1
102
RTVSPropertyOp37
 70
     1
102
RTVSPropertyOp38
 70
     1
102
RTVSPropertyOp39
 70
     1
102
RTVSPropertyOp40
 70
     1
102
RTVSPropertyOp41
 70
     1
102
RTVSPropertyOp42
 70
     1
102
RTVSPropertyOp43
 70
     1
102
RTVSPropertyOp44
 70
     1
102
RTVSPropertyOp45
 70
     1
102
RTVSPropertyOp46
 70
     1
102
RTVSPropertyOp47
 70
     1
102
RTVSPropertyOp48
 70
     1
102
RTVSPropertyOp49
 70
     1
102
RTVSPropertyOp50
 70
     1
102
RTVSPropertyOp51
 70
     0
102
RTVSPropertyOp52
 70
     0
102
RTVSPropertyOp53
 70
     1
102
RTVSPropertyOp54
 70
     1
102
RTVSPropertyOp55
 70
     1
102
RTVSPropertyOp56
 70
     1
102
RTVSPropertyOp57
 70
     1
102
RTVSPropertyOp58
 70
     1
102
RTVSPropertyOp59
 70
     1
102
RTVSPropertyOp60
 70
     1
102
RTVSPropertyOp61
 70
     1
102
RTVSPropertyOp62
 70
     1
  0
XRECORD
  5
66F
102
{ACAD_REACTORS
330
66E
102
}
330
66E
100
AcDbXrecord
280
     1
102
RTVSPost2010Prop28
280
     0
102
RTVSPost2010PropOp28
 70
     1
102
RTVSPost2010Prop29
280
     1
102
RTVSPost2010PropOp29
 70
     1
102
RTVSPost2010Prop30
280
     1
102
RTVSPost2010PropOp30
 70
     1
102
RTVSPost2010Prop31
280
     0
102
RTVSPost2010PropOp31
 70
     1
102
RTVSPost2010Prop32
280
     0
102
RTVSPost2010PropOp32
 70
     1
102
RTVSPost2010Prop33
280
     0
102
RTVSPost2010PropOp33
 70
     1
102
RTVSPost2010Prop34
280
     0
102
RTVSPost2010PropOp34
 70
     1
102
RTVSPost2010Prop35
280
     0
102
RTVSPost2010PropOp35
 70
     1
102
RTVSPost2010Prop36
280
     0
102
RTVSPost2010PropOp36
 70
     1
102
RTVSPost2010Prop37
 90
       50
102
RTVSPost2010PropOp37
 70
     1
102
RTVSPost2010Prop38
140
0.0
102
RTVSPost2010PropOp38
 70
     1
102
RTVSPost2010Prop39
140
1.0
102
RTVSPost2010PropOp39
 70
     1
102
RTVSPost2010Prop40
 90
        0
102
RTVSPost2010PropOp40
 70
     1
102
RTVSPost2010Prop41ColorIndex
 90
       18
102
RTVSPost2010Prop41ColorRGB
 90
        0
102
RTVSPost2010PropOp41
 70
     1
102
RTVSPost2010Prop42
 90
       50
102
RTVSPost2010PropOp42
 70
     1
102
RTVSPost2010Prop43
 90
        3
102
RTVSPost2010PropOp43
 70
     1
102
RTVSPost2010Prop44ColorIndex
 90
        5
102
RTVSPost2010Prop44ColorRGB
 90
      255
102
RTVSPost2010PropOp44
 70
     1
102
RTVSPost2010Prop45
280
     0
102
RTVSPost2010PropOp45
 70
     1
102
RTVSPost2010Prop46
 90
       50
102
RTVSPost2010PropOp46
 70
     1
102
RTVSPost2010Prop47
 90
       50
102
RTVSPost2010PropOp47
 70
     1
102
RTVSPost2010Prop48
 90
       50
102
RTVSPost2010PropOp48
 70
     1
102
RTVSPost2010Prop49
280
     0
102
RTVSPost2010PropOp49
 70
     1
102
RTVSPost2010Prop50
 90
       50
102
RTVSPost2010PropOp50
 70
     1
102
RTVSPost2010Prop51ColorIndex
 90
      256
102
RTVSPost2010Prop51ColorRGB
 90
-16777216
102
RTVSPost2010PropOp51
 70
     0
102
RTVSPost2010Prop52
140
1.0
102
RTVSPost2010PropOp52
 70
     0
102
RTVSPost2010Prop53
 90
        2
102
RTVSPost2010PropOp53
 70
     1
102
RTVSPost2010Prop54
  1
strokes_ogs.tif
102
RTVSPost2010PropOp54
 70
     1
102
RTVSPost2010Prop55
280
     0
102
RTVSPost2010PropOp55
 70
     1
102
RTVSPost2010Prop56
140
1.0
102
RTVSPost2010PropOp56
 70
     1
102
RTVSPost2010Prop57
140
1.0
102
RTVSPost2010PropOp57
 70
     1
102
RTVSPropertyOp0
 70
     1
102
RTVSPropertyOp1
 70
     1
102
RTVSPropertyOp2
 70
     1
102
RTVSPropertyOp3
 70
     1
102
RTVSPropertyOp4
 70
     1
102
RTVSPropertyOp5
 70
     1
102
RTVSPropertyOp6
 70
     1
102
RTVSPropertyOp7
 70
     1
102
RTVSPropertyOp8
 70
     1
102
RTVSPropertyOp9
 70
     1
102
RTVSPropertyOp10
 70
     1
102
RTVSPropertyOp11
 70
     1
102
RTVSPropertyOp12
 70
     1
102
RTVSPropertyOp13
 70
     1
102
RTVSPropertyOp14
 70
     1
102
RTVSPropertyOp15
 70
     1
102
RTVSPropertyOp16
 70
     1
102
RTVSPropertyOp17
 70
     1
102
RTVSPropertyOp18
 70
     1
102
RTVSPropertyOp19
 70
     1
102
RTVSPropertyOp20
 70
     1
102
RTVSPropertyOp21
 70
     1
102
RTVSPropertyOp22
 70
     1
102
RTVSPropertyOp23
 70
     1
102
RTVSPropertyOp24
 70
     1
102
RTVSPropertyOp25
 70
     1
102
RTVSPropertyOp26
 70
     1
102
RTVSPropertyOp27
 70
     1
102
RTVSPropertyOp28
 70
     1
102
RTVSPropertyOp29
 70
     1
102
RTVSPropertyOp30
 70
     1
102
RTVSPropertyOp31
 70
     1
102
RTVSPropertyOp32
 70
     1
102
RTVSPropertyOp33
 70
     1
102
RTVSPropertyOp34
 70
     1
102
RTVSPropertyOp35
 70
     1
102
RTVSPropertyOp36
 70
     1
102
RTVSPropertyOp37
 70
     1
102
RTVSPropertyOp38
 70
     1
102
RTVSPropertyOp39
 70
     1
102
RTVSPropertyOp40
 70
     1
102
RTVSPropertyOp41
 70
     1
102
RTVSPropertyOp42
 70
     1
102
RTVSPropertyOp43
 70
     1
102
RTVSPropertyOp44
 70
     1
102
RTVSPropertyOp45
 70
     1
102
RTVSPropertyOp46
 70
     1
102
RTVSPropertyOp47
 70
     1
102
RTVSPropertyOp48
 70
     1
102
RTVSPropertyOp49
 70
     1
102
RTVSPropertyOp50
 70
     1
102
RTVSPropertyOp51
 70
     0
102
RTVSPropertyOp52
 70
     0
102
RTVSPropertyOp53
 70
     1
102
RTVSPropertyOp54
 70
     1
102
RTVSPropertyOp55
 70
     1
102
RTVSPropertyOp56
 70
     1
102
RTVSPropertyOp57
 70
     1
102
RTVSPropertyOp58
 70
     1
102
RTVSPropertyOp59
 70
     1
102
RTVSPropertyOp60
 70
     1
102
RTVSPropertyOp61
 70
     1
102
RTVSPropertyOp62
 70
     1
  0
XRECORD
  5
66D
102
{ACAD_REACTORS
330
66C
102
}
330
66C
100
AcDbXrecord
280
     1
102
RTVSPost2010Prop28
280
     0
102
RTVSPost2010PropOp28
 70
     1
102
RTVSPost2010Prop29
280
     1
102
RTVSPost2010PropOp29
 70
     1
102
RTVSPost2010Prop30
280
     1
102
RTVSPost2010PropOp30
 70
     1
102
RTVSPost2010Prop31
280
     0
102
RTVSPost2010PropOp31
 70
     1
102
RTVSPost2010Prop32
280
     0
102
RTVSPost2010PropOp32
 70
     1
102
RTVSPost2010Prop33
280
     0
102
RTVSPost2010PropOp33
 70
     1
102
RTVSPost2010Prop34
280
     0
102
RTVSPost2010PropOp34
 70
     1
102
RTVSPost2010Prop35
280
     0
102
RTVSPost2010PropOp35
 70
     1
102
RTVSPost2010Prop36
280
     0
102
RTVSPost2010PropOp36
 70
     1
102
RTVSPost2010Prop37
 90
       50
102
RTVSPost2010PropOp37
 70
     1
102
RTVSPost2010Prop38
140
0.0
102
RTVSPost2010PropOp38
 70
     1
102
RTVSPost2010Prop39
140
1.0
102
RTVSPost2010PropOp39
 70
     1
102
RTVSPost2010Prop40
 90
        0
102
RTVSPost2010PropOp40
 70
     1
102
RTVSPost2010Prop41ColorIndex
 90
       18
102
RTVSPost2010Prop41ColorRGB
 90
        0
102
RTVSPost2010PropOp41
 70
     1
102
RTVSPost2010Prop42
 90
       50
102
RTVSPost2010PropOp42
 70
     1
102
RTVSPost2010Prop43
 90
        3
102
RTVSPost2010PropOp43
 70
     1
102
RTVSPost2010Prop44ColorIndex
 90
        5
102
RTVSPost2010Prop44ColorRGB
 90
      255
102
RTVSPost2010PropOp44
 70
     1
102
RTVSPost2010Prop45
280
     0
102
RTVSPost2010PropOp45
 70
     1
102
RTVSPost2010Prop46
 90
       50
102
RTVSPost2010PropOp46
 70
     1
102
RTVSPost2010Prop47
 90
       50
102
RTVSPost2010PropOp47
 70
     1
102
RTVSPost2010Prop48
 90
       50
102
RTVSPost2010PropOp48
 70
     1
102
RTVSPost2010Prop49
280
     0
102
RTVSPost2010PropOp49
 70
     1
102
RTVSPost2010Prop50
 90
       50
102
RTVSPost2010PropOp50
 70
     1
102
RTVSPost2010Prop51ColorIndex
 90
      256
102
RTVSPost2010Prop51ColorRGB
 90
-16777216
102
RTVSPost2010PropOp51
 70
     0
102
RTVSPost2010Prop52
140
1.0
102
RTVSPost2010PropOp52
 70
     0
102
RTVSPost2010Prop53
 90
        2
102
RTVSPost2010PropOp53
 70
     1
102
RTVSPost2010Prop54
  1
strokes_ogs.tif
102
RTVSPost2010PropOp54
 70
     1
102
RTVSPost2010Prop55
280
     0
102
RTVSPost2010PropOp55
 70
     1
102
RTVSPost2010Prop56
140
1.0
102
RTVSPost2010PropOp56
 70
     1
102
RTVSPost2010Prop57
140
1.0
102
RTVSPost2010PropOp57
 70
     1
102
RTVSPropertyOp0
 70
     1
102
RTVSPropertyOp1
 70
     1
102
RTVSPropertyOp2
 70
     1
102
RTVSPropertyOp3
 70
     1
102
RTVSPropertyOp4
 70
     1
102
RTVSPropertyOp5
 70
     1
102
RTVSPropertyOp6
 70
     1
102
RTVSPropertyOp7
 70
     1
102
RTVSPropertyOp8
 70
     1
102
RTVSPropertyOp9
 70
     1
102
RTVSPropertyOp10
 70
     1
102
RTVSPropertyOp11
 70
     1
102
RTVSPropertyOp12
 70
     1
102
RTVSPropertyOp13
 70
     1
102
RTVSPropertyOp14
 70
     1
102
RTVSPropertyOp15
 70
     1
102
RTVSPropertyOp16
 70
     1
102
RTVSPropertyOp17
 70
     1
102
RTVSPropertyOp18
 70
     1
102
RTVSPropertyOp19
 70
     1
102
RTVSPropertyOp20
 70
     1
102
RTVSPropertyOp21
 70
     1
102
RTVSPropertyOp22
 70
     1
102
RTVSPropertyOp23
 70
     1
102
RTVSPropertyOp24
 70
     1
102
RTVSPropertyOp25
 70
     1
102
RTVSPropertyOp26
 70
     1
102
RTVSPropertyOp27
 70
     1
102
RTVSPropertyOp28
 70
     1
102
RTVSPropertyOp29
 70
     1
102
RTVSPropertyOp30
 70
     1
102
RTVSPropertyOp31
 70
     1
102
RTVSPropertyOp32
 70
     1
102
RTVSPropertyOp33
 70
     1
102
RTVSPropertyOp34
 70
     1
102
RTVSPropertyOp35
 70
     1
102
RTVSPropertyOp36
 70
     1
102
RTVSPropertyOp37
 70
     1
102
RTVSPropertyOp38
 70
     1
102
RTVSPropertyOp39
 70
     1
102
RTVSPropertyOp40
 70
     1
102
RTVSPropertyOp41
 70
     1
102
RTVSPropertyOp42
 70
     1
102
RTVSPropertyOp43
 70
     1
102
RTVSPropertyOp44
 70
     1
102
RTVSPropertyOp45
 70
     1
102
RTVSPropertyOp46
 70
     1
102
RTVSPropertyOp47
 70
     1
102
RTVSPropertyOp48
 70
     1
102
RTVSPropertyOp49
 70
     1
102
RTVSPropertyOp50
 70
     1
102
RTVSPropertyOp51
 70
     0
102
RTVSPropertyOp52
 70
     0
102
RTVSPropertyOp53
 70
     1
102
RTVSPropertyOp54
 70
     1
102
RTVSPropertyOp55
 70
     1
102
RTVSPropertyOp56
 70
     1
102
RTVSPropertyOp57
 70
     1
102
RTVSPropertyOp58
 70
     1
102
RTVSPropertyOp59
 70
     1
102
RTVSPropertyOp60
 70
     1
102
RTVSPropertyOp61
 70
     1
102
RTVSPropertyOp62
 70
     1
  0
XRECORD
  5
669
102
{ACAD_REACTORS
330
668
102
}
330
668
100
AcDbXrecord
280
     1
102
RTVSPost2010Prop28
280
     0
102
RTVSPost2010PropOp28
 70
     1
102
RTVSPost2010Prop29
280
     1
102
RTVSPost2010PropOp29
 70
     1
102
RTVSPost2010Prop30
280
     1
102
RTVSPost2010PropOp30
 70
     1
102
RTVSPost2010Prop31
280
     0
102
RTVSPost2010PropOp31
 70
     1
102
RTVSPost2010Prop32
280
     0
102
RTVSPost2010PropOp32
 70
     1
102
RTVSPost2010Prop33
280
     0
102
RTVSPost2010PropOp33
 70
     1
102
RTVSPost2010Prop34
280
     0
102
RTVSPost2010PropOp34
 70
     1
102
RTVSPost2010Prop35
280
     0
102
RTVSPost2010PropOp35
 70
     1
102
RTVSPost2010Prop36
280
     0
102
RTVSPost2010PropOp36
 70
     1
102
RTVSPost2010Prop37
 90
       50
102
RTVSPost2010PropOp37
 70
     1
102
RTVSPost2010Prop38
140
0.0
102
RTVSPost2010PropOp38
 70
     1
102
RTVSPost2010Prop39
140
1.0
102
RTVSPost2010PropOp39
 70
     1
102
RTVSPost2010Prop40
 90
        0
102
RTVSPost2010PropOp40
 70
     1
102
RTVSPost2010Prop41ColorIndex
 90
       18
102
RTVSPost2010Prop41ColorRGB
 90
        0
102
RTVSPost2010PropOp41
 70
     1
102
RTVSPost2010Prop42
 90
       50
102
RTVSPost2010PropOp42
 70
     1
102
RTVSPost2010Prop43
 90
        3
102
RTVSPost2010PropOp43
 70
     1
102
RTVSPost2010Prop44ColorIndex
 90
        5
102
RTVSPost2010Prop44ColorRGB
 90
      255
102
RTVSPost2010PropOp44
 70
     1
102
RTVSPost2010Prop45
280
     0
102
RTVSPost2010PropOp45
 70
     1
102
RTVSPost2010Prop46
 90
       50
102
RTVSPost2010PropOp46
 70
     1
102
RTVSPost2010Prop47
 90
       50
102
RTVSPost2010PropOp47
 70
     1
102
RTVSPost2010Prop48
 90
       50
102
RTVSPost2010PropOp48
 70
     1
102
RTVSPost2010Prop49
280
     0
102
RTVSPost2010PropOp49
 70
     1
102
RTVSPost2010Prop50
 90
       50
102
RTVSPost2010PropOp50
 70
     1
102
RTVSPost2010Prop51ColorIndex
 90
      256
102
RTVSPost2010Prop51ColorRGB
 90
-16777216
102
RTVSPost2010PropOp51
 70
     0
102
RTVSPost2010Prop52
140
1.0
102
RTVSPost2010PropOp52
 70
     0
102
RTVSPost2010Prop53
 90
        2
102
RTVSPost2010PropOp53
 70
     1
102
RTVSPost2010Prop54
  1
strokes_ogs.tif
102
RTVSPost2010PropOp54
 70
     1
102
RTVSPost2010Prop55
280
     0
102
RTVSPost2010PropOp55
 70
     1
102
RTVSPost2010Prop56
140
1.0
102
RTVSPost2010PropOp56
 70
     1
102
RTVSPost2010Prop57
140
1.0
102
RTVSPost2010PropOp57
 70
     1
102
RTVSPropertyOp0
 70
     1
102
RTVSPropertyOp1
 70
     1
102
RTVSPropertyOp2
 70
     1
102
RTVSPropertyOp3
 70
     1
102
RTVSPropertyOp4
 70
     1
102
RTVSPropertyOp5
 70
     1
102
RTVSPropertyOp6
 70
     1
102
RTVSPropertyOp7
 70
     1
102
RTVSPropertyOp8
 70
     1
102
RTVSPropertyOp9
 70
     1
102
RTVSPropertyOp10
 70
     1
102
RTVSPropertyOp11
 70
     1
102
RTVSPropertyOp12
 70
     1
102
RTVSPropertyOp13
 70
     1
102
RTVSPropertyOp14
 70
     1
102
RTVSPropertyOp15
 70
     1
102
RTVSPropertyOp16
 70
     1
102
RTVSPropertyOp17
 70
     1
102
RTVSPropertyOp18
 70
     1
102
RTVSPropertyOp19
 70
     1
102
RTVSPropertyOp20
 70
     1
102
RTVSPropertyOp21
 70
     1
102
RTVSPropertyOp22
 70
     1
102
RTVSPropertyOp23
 70
     1
102
RTVSPropertyOp24
 70
     1
102
RTVSPropertyOp25
 70
     1
102
RTVSPropertyOp26
 70
     1
102
RTVSPropertyOp27
 70
     1
102
RTVSPropertyOp28
 70
     1
102
RTVSPropertyOp29
 70
     1
102
RTVSPropertyOp30
 70
     1
102
RTVSPropertyOp31
 70
     1
102
RTVSPropertyOp32
 70
     1
102
RTVSPropertyOp33
 70
     1
102
RTVSPropertyOp34
 70
     1
102
RTVSPropertyOp35
 70
     1
102
RTVSPropertyOp36
 70
     1
102
RTVSPropertyOp37
 70
     1
102
RTVSPropertyOp38
 70
     1
102
RTVSPropertyOp39
 70
     1
102
RTVSPropertyOp40
 70
     1
102
RTVSPropertyOp41
 70
     1
102
RTVSPropertyOp42
 70
     1
102
RTVSPropertyOp43
 70
     1
102
RTVSPropertyOp44
 70
     1
102
RTVSPropertyOp45
 70
     1
102
RTVSPropertyOp46
 70
     1
102
RTVSPropertyOp47
 70
     1
102
RTVSPropertyOp48
 70
     1
102
RTVSPropertyOp49
 70
     1
102
RTVSPropertyOp50
 70
     1
102
RTVSPropertyOp51
 70
     0
102
RTVSPropertyOp52
 70
     0
102
RTVSPropertyOp53
 70
     1
102
RTVSPropertyOp54
 70
     1
102
RTVSPropertyOp55
 70
     1
102
RTVSPropertyOp56
 70
     1
102
RTVSPropertyOp57
 70
     1
102
RTVSPropertyOp58
 70
     1
102
RTVSPropertyOp59
 70
     1
102
RTVSPropertyOp60
 70
     1
102
RTVSPropertyOp61
 70
     1
102
RTVSPropertyOp62
 70
     1
  0
XRECORD
  5
677
102
{ACAD_REACTORS
330
676
102
}
330
676
100
AcDbXrecord
280
     1
102
RTVSPost2010Prop28
280
     0
102
RTVSPost2010PropOp28
 70
     1
102
RTVSPost2010Prop29
280
     1
102
RTVSPost2010PropOp29
 70
     1
102
RTVSPost2010Prop30
280
     1
102
RTVSPost2010PropOp30
 70
     1
102
RTVSPost2010Prop31
280
     0
102
RTVSPost2010PropOp31
 70
     1
102
RTVSPost2010Prop32
280
     0
102
RTVSPost2010PropOp32
 70
     1
102
RTVSPost2010Prop33
280
     0
102
RTVSPost2010PropOp33
 70
     1
102
RTVSPost2010Prop34
280
     0
102
RTVSPost2010PropOp34
 70
     1
102
RTVSPost2010Prop35
280
     0
102
RTVSPost2010PropOp35
 70
     1
102
RTVSPost2010Prop36
280
     0
102
RTVSPost2010PropOp36
 70
     1
102
RTVSPost2010Prop37
 90
       50
102
RTVSPost2010PropOp37
 70
     1
102
RTVSPost2010Prop38
140
0.0
102
RTVSPost2010PropOp38
 70
     1
102
RTVSPost2010Prop39
140
1.0
102
RTVSPost2010PropOp39
 70
     1
102
RTVSPost2010Prop40
 90
        0
102
RTVSPost2010PropOp40
 70
     1
102
RTVSPost2010Prop41ColorIndex
 90
       18
102
RTVSPost2010Prop41ColorRGB
 90
        0
102
RTVSPost2010PropOp41
 70
     1
102
RTVSPost2010Prop42
 90
       50
102
RTVSPost2010PropOp42
 70
     1
102
RTVSPost2010Prop43
 90
        3
102
RTVSPost2010PropOp43
 70
     1
102
RTVSPost2010Prop44ColorIndex
 90
        5
102
RTVSPost2010Prop44ColorRGB
 90
      255
102
RTVSPost2010PropOp44
 70
     1
102
RTVSPost2010Prop45
280
     0
102
RTVSPost2010PropOp45
 70
     1
102
RTVSPost2010Prop46
 90
       50
102
RTVSPost2010PropOp46
 70
     1
102
RTVSPost2010Prop47
 90
       50
102
RTVSPost2010PropOp47
 70
     1
102
RTVSPost2010Prop48
 90
       50
102
RTVSPost2010PropOp48
 70
     1
102
RTVSPost2010Prop49
280
     0
102
RTVSPost2010PropOp49
 70
     1
102
RTVSPost2010Prop50
 90
       50
102
RTVSPost2010PropOp50
 70
     1
102
RTVSPost2010Prop51ColorIndex
 90
      256
102
RTVSPost2010Prop51ColorRGB
 90
-16777216
102
RTVSPost2010PropOp51
 70
     0
102
RTVSPost2010Prop52
140
1.0
102
RTVSPost2010PropOp52
 70
     0
102
RTVSPost2010Prop53
 90
        2
102
RTVSPost2010PropOp53
 70
     1
102
RTVSPost2010Prop54
  1
strokes_ogs.tif
102
RTVSPost2010PropOp54
 70
     1
102
RTVSPost2010Prop55
280
     0
102
RTVSPost2010PropOp55
 70
     1
102
RTVSPost2010Prop56
140
1.0
102
RTVSPost2010PropOp56
 70
     1
102
RTVSPost2010Prop57
140
1.0
102
RTVSPost2010PropOp57
 70
     1
102
RTVSPropertyOp0
 70
     1
102
RTVSPropertyOp1
 70
     1
102
RTVSPropertyOp2
 70
     1
102
RTVSPropertyOp3
 70
     1
102
RTVSPropertyOp4
 70
     1
102
RTVSPropertyOp5
 70
     1
102
RTVSPropertyOp6
 70
     1
102
RTVSPropertyOp7
 70
     1
102
RTVSPropertyOp8
 70
     1
102
RTVSPropertyOp9
 70
     1
102
RTVSPropertyOp10
 70
     1
102
RTVSPropertyOp11
 70
     1
102
RTVSPropertyOp12
 70
     1
102
RTVSPropertyOp13
 70
     1
102
RTVSPropertyOp14
 70
     1
102
RTVSPropertyOp15
 70
     1
102
RTVSPropertyOp16
 70
     1
102
RTVSPropertyOp17
 70
     1
102
RTVSPropertyOp18
 70
     1
102
RTVSPropertyOp19
 70
     1
102
RTVSPropertyOp20
 70
     1
102
RTVSPropertyOp21
 70
     1
102
RTVSPropertyOp22
 70
     1
102
RTVSPropertyOp23
 70
     1
102
RTVSPropertyOp24
 70
     1
102
RTVSPropertyOp25
 70
     1
102
RTVSPropertyOp26
 70
     1
102
RTVSPropertyOp27
 70
     1
102
RTVSPropertyOp28
 70
     1
102
RTVSPropertyOp29
 70
     1
102
RTVSPropertyOp30
 70
     1
102
RTVSPropertyOp31
 70
     1
102
RTVSPropertyOp32
 70
     1
102
RTVSPropertyOp33
 70
     1
102
RTVSPropertyOp34
 70
     1
102
RTVSPropertyOp35
 70
     1
102
RTVSPropertyOp36
 70
     1
102
RTVSPropertyOp37
 70
     1
102
RTVSPropertyOp38
 70
     1
102
RTVSPropertyOp39
 70
     1
102
RTVSPropertyOp40
 70
     1
102
RTVSPropertyOp41
 70
     1
102
RTVSPropertyOp42
 70
     1
102
RTVSPropertyOp43
 70
     1
102
RTVSPropertyOp44
 70
     1
102
RTVSPropertyOp45
 70
     1
102
RTVSPropertyOp46
 70
     1
102
RTVSPropertyOp47
 70
     1
102
RTVSPropertyOp48
 70
     1
102
RTVSPropertyOp49
 70
     1
102
RTVSPropertyOp50
 70
     1
102
RTVSPropertyOp51
 70
     0
102
RTVSPropertyOp52
 70
     0
102
RTVSPropertyOp53
 70
     1
102
RTVSPropertyOp54
 70
     1
102
RTVSPropertyOp55
 70
     1
102
RTVSPropertyOp56
 70
     1
102
RTVSPropertyOp57
 70
     1
102
RTVSPropertyOp58
 70
     1
102
RTVSPropertyOp59
 70
     1
102
RTVSPropertyOp60
 70
     1
102
RTVSPropertyOp61
 70
     1
102
RTVSPropertyOp62
 70
     1
  0
XRECORD
  5
67F
102
{ACAD_REACTORS
330
67E
102
}
330
67E
100
AcDbXrecord
280
     1
102
RTVSPost2010Prop28
280
     0
102
RTVSPost2010PropOp28
 70
     1
102
RTVSPost2010Prop29
280
     1
102
RTVSPost2010PropOp29
 70
     1
102
RTVSPost2010Prop30
280
     1
102
RTVSPost2010PropOp30
 70
     1
102
RTVSPost2010Prop31
280
     0
102
RTVSPost2010PropOp31
 70
     1
102
RTVSPost2010Prop32
280
     0
102
RTVSPost2010PropOp32
 70
     1
102
RTVSPost2010Prop33
280
     0
102
RTVSPost2010PropOp33
 70
     1
102
RTVSPost2010Prop34
280
     0
102
RTVSPost2010PropOp34
 70
     1
102
RTVSPost2010Prop35
280
     0
102
RTVSPost2010PropOp35
 70
     1
102
RTVSPost2010Prop36
280
     0
102
RTVSPost2010PropOp36
 70
     1
102
RTVSPost2010Prop37
 90
       50
102
RTVSPost2010PropOp37
 70
     1
102
RTVSPost2010Prop38
140
0.0
102
RTVSPost2010PropOp38
 70
     1
102
RTVSPost2010Prop39
140
1.0
102
RTVSPost2010PropOp39
 70
     1
102
RTVSPost2010Prop40
 90
        0
102
RTVSPost2010PropOp40
 70
     1
102
RTVSPost2010Prop41ColorIndex
 90
       18
102
RTVSPost2010Prop41ColorRGB
 90
        0
102
RTVSPost2010PropOp41
 70
     1
102
RTVSPost2010Prop42
 90
       50
102
RTVSPost2010PropOp42
 70
     1
102
RTVSPost2010Prop43
 90
        3
102
RTVSPost2010PropOp43
 70
     1
102
RTVSPost2010Prop44ColorIndex
 90
        5
102
RTVSPost2010Prop44ColorRGB
 90
      255
102
RTVSPost2010PropOp44
 70
     1
102
RTVSPost2010Prop45
280
     0
102
RTVSPost2010PropOp45
 70
     1
102
RTVSPost2010Prop46
 90
       50
102
RTVSPost2010PropOp46
 70
     1
102
RTVSPost2010Prop47
 90
       50
102
RTVSPost2010PropOp47
 70
     1
102
RTVSPost2010Prop48
 90
       50
102
RTVSPost2010PropOp48
 70
     1
102
RTVSPost2010Prop49
280
     0
102
RTVSPost2010PropOp49
 70
     1
102
RTVSPost2010Prop50
 90
       50
102
RTVSPost2010PropOp50
 70
     1
102
RTVSPost2010Prop51ColorIndex
 90
      256
102
RTVSPost2010Prop51ColorRGB
 90
-16777216
102
RTVSPost2010PropOp51
 70
     0
102
RTVSPost2010Prop52
140
1.0
102
RTVSPost2010PropOp52
 70
     0
102
RTVSPost2010Prop53
 90
        2
102
RTVSPost2010PropOp53
 70
     1
102
RTVSPost2010Prop54
  1
strokes_ogs.tif
102
RTVSPost2010PropOp54
 70
     1
102
RTVSPost2010Prop55
280
     0
102
RTVSPost2010PropOp55
 70
     1
102
RTVSPost2010Prop56
140
1.0
102
RTVSPost2010PropOp56
 70
     1
102
RTVSPost2010Prop57
140
1.0
102
RTVSPost2010PropOp57
 70
     1
102
RTVSPropertyOp0
 70
     1
102
RTVSPropertyOp1
 70
     1
102
RTVSPropertyOp2
 70
     1
102
RTVSPropertyOp3
 70
     1
102
RTVSPropertyOp4
 70
     1
102
RTVSPropertyOp5
 70
     1
102
RTVSPropertyOp6
 70
     1
102
RTVSPropertyOp7
 70
     1
102
RTVSPropertyOp8
 70
     1
102
RTVSPropertyOp9
 70
     1
102
RTVSPropertyOp10
 70
     1
102
RTVSPropertyOp11
 70
     1
102
RTVSPropertyOp12
 70
     1
102
RTVSPropertyOp13
 70
     1
102
RTVSPropertyOp14
 70
     1
102
RTVSPropertyOp15
 70
     1
102
RTVSPropertyOp16
 70
     1
102
RTVSPropertyOp17
 70
     1
102
RTVSPropertyOp18
 70
     1
102
RTVSPropertyOp19
 70
     1
102
RTVSPropertyOp20
 70
     1
102
RTVSPropertyOp21
 70
     1
102
RTVSPropertyOp22
 70
     1
102
RTVSPropertyOp23
 70
     1
102
RTVSPropertyOp24
 70
     1
102
RTVSPropertyOp25
 70
     1
102
RTVSPropertyOp26
 70
     1
102
RTVSPropertyOp27
 70
     1
102
RTVSPropertyOp28
 70
     1
102
RTVSPropertyOp29
 70
     1
102
RTVSPropertyOp30
 70
     1
102
RTVSPropertyOp31
 70
     1
102
RTVSPropertyOp32
 70
     1
102
RTVSPropertyOp33
 70
     1
102
RTVSPropertyOp34
 70
     1
102
RTVSPropertyOp35
 70
     1
102
RTVSPropertyOp36
 70
     1
102
RTVSPropertyOp37
 70
     1
102
RTVSPropertyOp38
 70
     1
102
RTVSPropertyOp39
 70
     1
102
RTVSPropertyOp40
 70
     1
102
RTVSPropertyOp41
 70
     1
102
RTVSPropertyOp42
 70
     1
102
RTVSPropertyOp43
 70
     1
102
RTVSPropertyOp44
 70
     1
102
RTVSPropertyOp45
 70
     1
102
RTVSPropertyOp46
 70
     1
102
RTVSPropertyOp47
 70
     1
102
RTVSPropertyOp48
 70
     1
102
RTVSPropertyOp49
 70
     1
102
RTVSPropertyOp50
 70
     1
102
RTVSPropertyOp51
 70
     0
102
RTVSPropertyOp52
 70
     0
102
RTVSPropertyOp53
 70
     1
102
RTVSPropertyOp54
 70
     1
102
RTVSPropertyOp55
 70
     1
102
RTVSPropertyOp56
 70
     1
102
RTVSPropertyOp57
 70
     1
102
RTVSPropertyOp58
 70
     1
102
RTVSPropertyOp59
 70
     1
102
RTVSPropertyOp60
 70
     1
102
RTVSPropertyOp61
 70
     1
102
RTVSPropertyOp62
 70
     1
  0
XRECORD
  5
671
102
{ACAD_REACTORS
330
670
102
}
330
670
100
AcDbXrecord
280
     1
102
RTVSPost2010Prop28
280
     0
102
RTVSPost2010PropOp28
 70
     1
102
RTVSPost2010Prop29
280
     1
102
RTVSPost2010PropOp29
 70
     1
102
RTVSPost2010Prop30
280
     1
102
RTVSPost2010PropOp30
 70
     1
102
RTVSPost2010Prop31
280
     0
102
RTVSPost2010PropOp31
 70
     1
102
RTVSPost2010Prop32
280
     0
102
RTVSPost2010PropOp32
 70
     1
102
RTVSPost2010Prop33
280
     0
102
RTVSPost2010PropOp33
 70
     1
102
RTVSPost2010Prop34
280
     0
102
RTVSPost2010PropOp34
 70
     1
102
RTVSPost2010Prop35
280
     0
102
RTVSPost2010PropOp35
 70
     1
102
RTVSPost2010Prop36
280
     0
102
RTVSPost2010PropOp36
 70
     1
102
RTVSPost2010Prop37
 90
       50
102
RTVSPost2010PropOp37
 70
     1
102
RTVSPost2010Prop38
140
0.0
102
RTVSPost2010PropOp38
 70
     1
102
RTVSPost2010Prop39
140
1.0
102
RTVSPost2010PropOp39
 70
     1
102
RTVSPost2010Prop40
 90
        0
102
RTVSPost2010PropOp40
 70
     1
102
RTVSPost2010Prop41ColorIndex
 90
       18
102
RTVSPost2010Prop41ColorRGB
 90
        0
102
RTVSPost2010PropOp41
 70
     1
102
RTVSPost2010Prop42
 90
       50
102
RTVSPost2010PropOp42
 70
     1
102
RTVSPost2010Prop43
 90
        3
102
RTVSPost2010PropOp43
 70
     1
102
RTVSPost2010Prop44ColorIndex
 90
        5
102
RTVSPost2010Prop44ColorRGB
 90
      255
102
RTVSPost2010PropOp44
 70
     1
102
RTVSPost2010Prop45
280
     0
102
RTVSPost2010PropOp45
 70
     1
102
RTVSPost2010Prop46
 90
       50
102
RTVSPost2010PropOp46
 70
     1
102
RTVSPost2010Prop47
 90
       50
102
RTVSPost2010PropOp47
 70
     1
102
RTVSPost2010Prop48
 90
       50
102
RTVSPost2010PropOp48
 70
     1
102
RTVSPost2010Prop49
280
     0
102
RTVSPost2010PropOp49
 70
     1
102
RTVSPost2010Prop50
 90
       50
102
RTVSPost2010PropOp50
 70
     1
102
RTVSPost2010Prop51ColorIndex
 90
      256
102
RTVSPost2010Prop51ColorRGB
 90
-16777216
102
RTVSPost2010PropOp51
 70
     0
102
RTVSPost2010Prop52
140
1.0
102
RTVSPost2010PropOp52
 70
     0
102
RTVSPost2010Prop53
 90
        2
102
RTVSPost2010PropOp53
 70
     1
102
RTVSPost2010Prop54
  1
strokes_ogs.tif
102
RTVSPost2010PropOp54
 70
     1
102
RTVSPost2010Prop55
280
     0
102
RTVSPost2010PropOp55
 70
     1
102
RTVSPost2010Prop56
140
1.0
102
RTVSPost2010PropOp56
 70
     1
102
RTVSPost2010Prop57
140
1.0
102
RTVSPost2010PropOp57
 70
     1
102
RTVSPropertyOp0
 70
     1
102
RTVSPropertyOp1
 70
     1
102
RTVSPropertyOp2
 70
     1
102
RTVSPropertyOp3
 70
     1
102
RTVSPropertyOp4
 70
     1
102
RTVSPropertyOp5
 70
     1
102
RTVSPropertyOp6
 70
     1
102
RTVSPropertyOp7
 70
     1
102
RTVSPropertyOp8
 70
     1
102
RTVSPropertyOp9
 70
     1
102
RTVSPropertyOp10
 70
     1
102
RTVSPropertyOp11
 70
     1
102
RTVSPropertyOp12
 70
     1
102
RTVSPropertyOp13
 70
     1
102
RTVSPropertyOp14
 70
     1
102
RTVSPropertyOp15
 70
     1
102
RTVSPropertyOp16
 70
     1
102
RTVSPropertyOp17
 70
     1
102
RTVSPropertyOp18
 70
     1
102
RTVSPropertyOp19
 70
     1
102
RTVSPropertyOp20
 70
     1
102
RTVSPropertyOp21
 70
     1
102
RTVSPropertyOp22
 70
     1
102
RTVSPropertyOp23
 70
     1
102
RTVSPropertyOp24
 70
     1
102
RTVSPropertyOp25
 70
     1
102
RTVSPropertyOp26
 70
     1
102
RTVSPropertyOp27
 70
     1
102
RTVSPropertyOp28
 70
     1
102
RTVSPropertyOp29
 70
     1
102
RTVSPropertyOp30
 70
     1
102
RTVSPropertyOp31
 70
     1
102
RTVSPropertyOp32
 70
     1
102
RTVSPropertyOp33
 70
     1
102
RTVSPropertyOp34
 70
     1
102
RTVSPropertyOp35
 70
     1
102
RTVSPropertyOp36
 70
     1
102
RTVSPropertyOp37
 70
     1
102
RTVSPropertyOp38
 70
     1
102
RTVSPropertyOp39
 70
     1
102
RTVSPropertyOp40
 70
     1
102
RTVSPropertyOp41
 70
     1
102
RTVSPropertyOp42
 70
     1
102
RTVSPropertyOp43
 70
     1
102
RTVSPropertyOp44
 70
     1
102
RTVSPropertyOp45
 70
     1
102
RTVSPropertyOp46
 70
     1
102
RTVSPropertyOp47
 70
     1
102
RTVSPropertyOp48
 70
     1
102
RTVSPropertyOp49
 70
     1
102
RTVSPropertyOp50
 70
     1
102
RTVSPropertyOp51
 70
     0
102
RTVSPropertyOp52
 70
     0
102
RTVSPropertyOp53
 70
     1
102
RTVSPropertyOp54
 70
     1
102
RTVSPropertyOp55
 70
     1
102
RTVSPropertyOp56
 70
     1
102
RTVSPropertyOp57
 70
     1
102
RTVSPropertyOp58
 70
     1
102
RTVSPropertyOp59
 70
     1
102
RTVSPropertyOp60
 70
     1
102
RTVSPropertyOp61
 70
     1
102
RTVSPropertyOp62
 70
     1
  0
XRECORD
  5
675
102
{ACAD_REACTORS
330
674
102
}
330
674
100
AcDbXrecord
280
     1
102
RTVSPost2010Prop28
280
     0
102
RTVSPost2010PropOp28
 70
     1
102
RTVSPost2010Prop29
280
     1
102
RTVSPost2010PropOp29
 70
     1
102
RTVSPost2010Prop30
280
     1
102
RTVSPost2010PropOp30
 70
     1
102
RTVSPost2010Prop31
280
     0
102
RTVSPost2010PropOp31
 70
     1
102
RTVSPost2010Prop32
280
     0
102
RTVSPost2010PropOp32
 70
     1
102
RTVSPost2010Prop33
280
     0
102
RTVSPost2010PropOp33
 70
     1
102
RTVSPost2010Prop34
280
     0
102
RTVSPost2010PropOp34
 70
     1
102
RTVSPost2010Prop35
280
     0
102
RTVSPost2010PropOp35
 70
     1
102
RTVSPost2010Prop36
280
     0
102
RTVSPost2010PropOp36
 70
     1
102
RTVSPost2010Prop37
 90
       50
102
RTVSPost2010PropOp37
 70
     1
102
RTVSPost2010Prop38
140
0.0
102
RTVSPost2010PropOp38
 70
     1
102
RTVSPost2010Prop39
140
1.0
102
RTVSPost2010PropOp39
 70
     1
102
RTVSPost2010Prop40
 90
        0
102
RTVSPost2010PropOp40
 70
     1
102
RTVSPost2010Prop41ColorIndex
 90
       18
102
RTVSPost2010Prop41ColorRGB
 90
        0
102
RTVSPost2010PropOp41
 70
     1
102
RTVSPost2010Prop42
 90
       50
102
RTVSPost2010PropOp42
 70
     1
102
RTVSPost2010Prop43
 90
        3
102
RTVSPost2010PropOp43
 70
     1
102
RTVSPost2010Prop44ColorIndex
 90
        5
102
RTVSPost2010Prop44ColorRGB
 90
      255
102
RTVSPost2010PropOp44
 70
     1
102
RTVSPost2010Prop45
280
     0
102
RTVSPost2010PropOp45
 70
     1
102
RTVSPost2010Prop46
 90
       50
102
RTVSPost2010PropOp46
 70
     1
102
RTVSPost2010Prop47
 90
       50
102
RTVSPost2010PropOp47
 70
     1
102
RTVSPost2010Prop48
 90
       50
102
RTVSPost2010PropOp48
 70
     1
102
RTVSPost2010Prop49
280
     0
102
RTVSPost2010PropOp49
 70
     1
102
RTVSPost2010Prop50
 90
       50
102
RTVSPost2010PropOp50
 70
     1
102
RTVSPost2010Prop51ColorIndex
 90
      256
102
RTVSPost2010Prop51ColorRGB
 90
-16777216
102
RTVSPost2010PropOp51
 70
     0
102
RTVSPost2010Prop52
140
1.0
102
RTVSPost2010PropOp52
 70
     0
102
RTVSPost2010Prop53
 90
        2
102
RTVSPost2010PropOp53
 70
     1
102
RTVSPost2010Prop54
  1
strokes_ogs.tif
102
RTVSPost2010PropOp54
 70
     1
102
RTVSPost2010Prop55
280
     0
102
RTVSPost2010PropOp55
 70
     1
102
RTVSPost2010Prop56
140
1.0
102
RTVSPost2010PropOp56
 70
     1
102
RTVSPost2010Prop57
140
1.0
102
RTVSPost2010PropOp57
 70
     1
102
RTVSPropertyOp0
 70
     1
102
RTVSPropertyOp1
 70
     1
102
RTVSPropertyOp2
 70
     1
102
RTVSPropertyOp3
 70
     1
102
RTVSPropertyOp4
 70
     1
102
RTVSPropertyOp5
 70
     1
102
RTVSPropertyOp6
 70
     1
102
RTVSPropertyOp7
 70
     1
102
RTVSPropertyOp8
 70
     1
102
RTVSPropertyOp9
 70
     1
102
RTVSPropertyOp10
 70
     1
102
RTVSPropertyOp11
 70
     1
102
RTVSPropertyOp12
 70
     1
102
RTVSPropertyOp13
 70
     1
102
RTVSPropertyOp14
 70
     1
102
RTVSPropertyOp15
 70
     1
102
RTVSPropertyOp16
 70
     1
102
RTVSPropertyOp17
 70
     1
102
RTVSPropertyOp18
 70
     1
102
RTVSPropertyOp19
 70
     1
102
RTVSPropertyOp20
 70
     1
102
RTVSPropertyOp21
 70
     1
102
RTVSPropertyOp22
 70
     1
102
RTVSPropertyOp23
 70
     1
102
RTVSPropertyOp24
 70
     1
102
RTVSPropertyOp25
 70
     1
102
RTVSPropertyOp26
 70
     1
102
RTVSPropertyOp27
 70
     1
102
RTVSPropertyOp28
 70
     1
102
RTVSPropertyOp29
 70
     1
102
RTVSPropertyOp30
 70
     1
102
RTVSPropertyOp31
 70
     1
102
RTVSPropertyOp32
 70
     1
102
RTVSPropertyOp33
 70
     1
102
RTVSPropertyOp34
 70
     1
102
RTVSPropertyOp35
 70
     1
102
RTVSPropertyOp36
 70
     1
102
RTVSPropertyOp37
 70
     1
102
RTVSPropertyOp38
 70
     1
102
RTVSPropertyOp39
 70
     1
102
RTVSPropertyOp40
 70
     1
102
RTVSPropertyOp41
 70
     1
102
RTVSPropertyOp42
 70
     1
102
RTVSPropertyOp43
 70
     1
102
RTVSPropertyOp44
 70
     1
102
RTVSPropertyOp45
 70
     1
102
RTVSPropertyOp46
 70
     1
102
RTVSPropertyOp47
 70
     1
102
RTVSPropertyOp48
 70
     1
102
RTVSPropertyOp49
 70
     1
102
RTVSPropertyOp50
 70
     1
102
RTVSPropertyOp51
 70
     0
102
RTVSPropertyOp52
 70
     0
102
RTVSPropertyOp53
 70
     1
102
RTVSPropertyOp54
 70
     1
102
RTVSPropertyOp55
 70
     1
102
RTVSPropertyOp56
 70
     1
102
RTVSPropertyOp57
 70
     1
102
RTVSPropertyOp58
 70
     1
102
RTVSPropertyOp59
 70
     1
102
RTVSPropertyOp60
 70
     1
102
RTVSPropertyOp61
 70
     1
102
RTVSPropertyOp62
 70
     1
  0
XRECORD
  5
685
102
{ACAD_REACTORS
330
684
102
}
330
684
100
AcDbXrecord
280
     1
102
RTVSPost2010Prop28
280
     0
102
RTVSPost2010PropOp28
 70
     1
102
RTVSPost2010Prop29
280
     1
102
RTVSPost2010PropOp29
 70
     1
102
RTVSPost2010Prop30
280
     1
102
RTVSPost2010PropOp30
 70
     1
102
RTVSPost2010Prop31
280
     0
102
RTVSPost2010PropOp31
 70
     1
102
RTVSPost2010Prop32
280
     0
102
RTVSPost2010PropOp32
 70
     1
102
RTVSPost2010Prop33
280
     0
102
RTVSPost2010PropOp33
 70
     1
102
RTVSPost2010Prop34
280
     0
102
RTVSPost2010PropOp34
 70
     1
102
RTVSPost2010Prop35
280
     0
102
RTVSPost2010PropOp35
 70
     1
102
RTVSPost2010Prop36
280
     0
102
RTVSPost2010PropOp36
 70
     1
102
RTVSPost2010Prop37
 90
       50
102
RTVSPost2010PropOp37
 70
     1
102
RTVSPost2010Prop38
140
0.0
102
RTVSPost2010PropOp38
 70
     1
102
RTVSPost2010Prop39
140
1.0
102
RTVSPost2010PropOp39
 70
     1
102
RTVSPost2010Prop40
 90
        0
102
RTVSPost2010PropOp40
 70
     1
102
RTVSPost2010Prop41ColorIndex
 90
       18
102
RTVSPost2010Prop41ColorRGB
 90
        0
102
RTVSPost2010PropOp41
 70
     1
102
RTVSPost2010Prop42
 90
       50
102
RTVSPost2010PropOp42
 70
     1
102
RTVSPost2010Prop43
 90
        3
102
RTVSPost2010PropOp43
 70
     1
102
RTVSPost2010Prop44ColorIndex
 90
        5
102
RTVSPost2010Prop44ColorRGB
 90
      255
102
RTVSPost2010PropOp44
 70
     1
102
RTVSPost2010Prop45
280
     0
102
RTVSPost2010PropOp45
 70
     1
102
RTVSPost2010Prop46
 90
       50
102
RTVSPost2010PropOp46
 70
     1
102
RTVSPost2010Prop47
 90
       50
102
RTVSPost2010PropOp47
 70
     1
102
RTVSPost2010Prop48
 90
       50
102
RTVSPost2010PropOp48
 70
     1
102
RTVSPost2010Prop49
280
     0
102
RTVSPost2010PropOp49
 70
     1
102
RTVSPost2010Prop50
 90
       50
102
RTVSPost2010PropOp50
 70
     1
102
RTVSPost2010Prop51ColorIndex
 90
      256
102
RTVSPost2010Prop51ColorRGB
 90
-16777216
102
RTVSPost2010PropOp51
 70
     0
102
RTVSPost2010Prop52
140
1.0
102
RTVSPost2010PropOp52
 70
     0
102
RTVSPost2010Prop53
 90
        2
102
RTVSPost2010PropOp53
 70
     1
102
RTVSPost2010Prop54
  1
strokes_ogs.tif
102
RTVSPost2010PropOp54
 70
     1
102
RTVSPost2010Prop55
280
     0
102
RTVSPost2010PropOp55
 70
     1
102
RTVSPost2010Prop56
140
1.0
102
RTVSPost2010PropOp56
 70
     1
102
RTVSPost2010Prop57
140
1.0
102
RTVSPost2010PropOp57
 70
     1
102
RTVSPropertyOp0
 70
     0
102
RTVSPropertyOp1
 70
     0
102
RTVSPropertyOp2
 70
     0
102
RTVSPropertyOp3
 70
     0
102
RTVSPropertyOp4
 70
     0
102
RTVSPropertyOp5
 70
     0
102
RTVSPropertyOp6
 70
     0
102
RTVSPropertyOp7
 70
     0
102
RTVSPropertyOp8
 70
     0
102
RTVSPropertyOp9
 70
     0
102
RTVSPropertyOp10
 70
     0
102
RTVSPropertyOp11
 70
     0
102
RTVSPropertyOp12
 70
     0
102
RTVSPropertyOp13
 70
     0
102
RTVSPropertyOp14
 70
     2
102
RTVSPropertyOp15
 70
     0
102
RTVSPropertyOp16
 70
     0
102
RTVSPropertyOp17
 70
     0
102
RTVSPropertyOp18
 70
     0
102
RTVSPropertyOp19
 70
     0
102
RTVSPropertyOp20
 70
     0
102
RTVSPropertyOp21
 70
     0
102
RTVSPropertyOp22
 70
     0
102
RTVSPropertyOp23
 70
     0
102
RTVSPropertyOp24
 70
     0
102
RTVSPropertyOp25
 70
     0
102
RTVSPropertyOp26
 70
     0
102
RTVSPropertyOp27
 70
     0
102
RTVSPropertyOp28
 70
     1
102
RTVSPropertyOp29
 70
     1
102
RTVSPropertyOp30
 70
     1
102
RTVSPropertyOp31
 70
     1
102
RTVSPropertyOp32
 70
     1
102
RTVSPropertyOp33
 70
     1
102
RTVSPropertyOp34
 70
     1
102
RTVSPropertyOp35
 70
     1
102
RTVSPropertyOp36
 70
     1
102
RTVSPropertyOp37
 70
     1
102
RTVSPropertyOp38
 70
     1
102
RTVSPropertyOp39
 70
     1
102
RTVSPropertyOp40
 70
     1
102
RTVSPropertyOp41
 70
     1
102
RTVSPropertyOp42
 70
     1
102
RTVSPropertyOp43
 70
     1
102
RTVSPropertyOp44
 70
     1
102
RTVSPropertyOp45
 70
     1
102
RTVSPropertyOp46
 70
     1
102
RTVSPropertyOp47
 70
     1
102
RTVSPropertyOp48
 70
     1
102
RTVSPropertyOp49
 70
     1
102
RTVSPropertyOp50
 70
     1
102
RTVSPropertyOp51
 70
     0
102
RTVSPropertyOp52
 70
     0
102
RTVSPropertyOp53
 70
     1
102
RTVSPropertyOp54
 70
     1
102
RTVSPropertyOp55
 70
     1
102
RTVSPropertyOp56
 70
     1
102
RTVSPropertyOp57
 70
     1
102
RTVSPropertyOp58
 70
     1
102
RTVSPropertyOp59
 70
     1
102
RTVSPropertyOp60
 70
     1
102
RTVSPropertyOp61
 70
     1
102
RTVSPropertyOp62
 70
     1
  0
XRECORD
  5
67D
102
{ACAD_REACTORS
330
67C
102
}
330
67C
100
AcDbXrecord
280
     1
102
RTVSPost2010Prop28
280
     0
102
RTVSPost2010PropOp28
 70
     1
102
RTVSPost2010Prop29
280
     1
102
RTVSPost2010PropOp29
 70
     1
102
RTVSPost2010Prop30
280
     1
102
RTVSPost2010PropOp30
 70
     1
102
RTVSPost2010Prop31
280
     0
102
RTVSPost2010PropOp31
 70
     1
102
RTVSPost2010Prop32
280
     0
102
RTVSPost2010PropOp32
 70
     1
102
RTVSPost2010Prop33
280
     0
102
RTVSPost2010PropOp33
 70
     1
102
RTVSPost2010Prop34
280
     0
102
RTVSPost2010PropOp34
 70
     1
102
RTVSPost2010Prop35
280
     0
102
RTVSPost2010PropOp35
 70
     1
102
RTVSPost2010Prop36
280
     0
102
RTVSPost2010PropOp36
 70
     1
102
RTVSPost2010Prop37
 90
       50
102
RTVSPost2010PropOp37
 70
     1
102
RTVSPost2010Prop38
140
0.0
102
RTVSPost2010PropOp38
 70
     1
102
RTVSPost2010Prop39
140
1.0
102
RTVSPost2010PropOp39
 70
     1
102
RTVSPost2010Prop40
 90
        0
102
RTVSPost2010PropOp40
 70
     1
102
RTVSPost2010Prop41ColorIndex
 90
       18
102
RTVSPost2010Prop41ColorRGB
 90
        0
102
RTVSPost2010PropOp41
 70
     1
102
RTVSPost2010Prop42
 90
       50
102
RTVSPost2010PropOp42
 70
     1
102
RTVSPost2010Prop43
 90
        3
102
RTVSPost2010PropOp43
 70
     1
102
RTVSPost2010Prop44ColorIndex
 90
        5
102
RTVSPost2010Prop44ColorRGB
 90
      255
102
RTVSPost2010PropOp44
 70
     1
102
RTVSPost2010Prop45
280
     0
102
RTVSPost2010PropOp45
 70
     1
102
RTVSPost2010Prop46
 90
       50
102
RTVSPost2010PropOp46
 70
     1
102
RTVSPost2010Prop47
 90
       50
102
RTVSPost2010PropOp47
 70
     1
102
RTVSPost2010Prop48
 90
       50
102
RTVSPost2010PropOp48
 70
     1
102
RTVSPost2010Prop49
280
     0
102
RTVSPost2010PropOp49
 70
     1
102
RTVSPost2010Prop50
 90
       50
102
RTVSPost2010PropOp50
 70
     1
102
RTVSPost2010Prop51ColorIndex
 90
      256
102
RTVSPost2010Prop51ColorRGB
 90
-16777216
102
RTVSPost2010PropOp51
 70
     0
102
RTVSPost2010Prop52
140
1.0
102
RTVSPost2010PropOp52
 70
     0
102
RTVSPost2010Prop53
 90
        2
102
RTVSPost2010PropOp53
 70
     1
102
RTVSPost2010Prop54
  1
strokes_ogs.tif
102
RTVSPost2010PropOp54
 70
     1
102
RTVSPost2010Prop55
280
     0
102
RTVSPost2010PropOp55
 70
     1
102
RTVSPost2010Prop56
140
1.0
102
RTVSPost2010PropOp56
 70
     1
102
RTVSPost2010Prop57
140
1.0
102
RTVSPost2010PropOp57
 70
     1
102
RTVSPropertyOp0
 70
     1
102
RTVSPropertyOp1
 70
     1
102
RTVSPropertyOp2
 70
     1
102
RTVSPropertyOp3
 70
     1
102
RTVSPropertyOp4
 70
     1
102
RTVSPropertyOp5
 70
     1
102
RTVSPropertyOp6
 70
     1
102
RTVSPropertyOp7
 70
     1
102
RTVSPropertyOp8
 70
     1
102
RTVSPropertyOp9
 70
     1
102
RTVSPropertyOp10
 70
     1
102
RTVSPropertyOp11
 70
     1
102
RTVSPropertyOp12
 70
     1
102
RTVSPropertyOp13
 70
     1
102
RTVSPropertyOp14
 70
     1
102
RTVSPropertyOp15
 70
     1
102
RTVSPropertyOp16
 70
     1
102
RTVSPropertyOp17
 70
     1
102
RTVSPropertyOp18
 70
     1
102
RTVSPropertyOp19
 70
     1
102
RTVSPropertyOp20
 70
     1
102
RTVSPropertyOp21
 70
     1
102
RTVSPropertyOp22
 70
     1
102
RTVSPropertyOp23
 70
     1
102
RTVSPropertyOp24
 70
     1
102
RTVSPropertyOp25
 70
     1
102
RTVSPropertyOp26
 70
     1
102
RTVSPropertyOp27
 70
     1
102
RTVSPropertyOp28
 70
     1
102
RTVSPropertyOp29
 70
     1
102
RTVSPropertyOp30
 70
     1
102
RTVSPropertyOp31
 70
     1
102
RTVSPropertyOp32
 70
     1
102
RTVSPropertyOp33
 70
     1
102
RTVSPropertyOp34
 70
     1
102
RTVSPropertyOp35
 70
     1
102
RTVSPropertyOp36
 70
     1
102
RTVSPropertyOp37
 70
     1
102
RTVSPropertyOp38
 70
     1
102
RTVSPropertyOp39
 70
     1
102
RTVSPropertyOp40
 70
     1
102
RTVSPropertyOp41
 70
     1
102
RTVSPropertyOp42
 70
     1
102
RTVSPropertyOp43
 70
     1
102
RTVSPropertyOp44
 70
     1
102
RTVSPropertyOp45
 70
     1
102
RTVSPropertyOp46
 70
     1
102
RTVSPropertyOp47
 70
     1
102
RTVSPropertyOp48
 70
     1
102
RTVSPropertyOp49
 70
     1
102
RTVSPropertyOp50
 70
     1
102
RTVSPropertyOp51
 70
     0
102
RTVSPropertyOp52
 70
     0
102
RTVSPropertyOp53
 70
     1
102
RTVSPropertyOp54
 70
     1
102
RTVSPropertyOp55
 70
     1
102
RTVSPropertyOp56
 70
     1
102
RTVSPropertyOp57
 70
     1
102
RTVSPropertyOp58
 70
     1
102
RTVSPropertyOp59
 70
     1
102
RTVSPropertyOp60
 70
     1
102
RTVSPropertyOp61
 70
     1
102
RTVSPropertyOp62
 70
     1
  0
XRECORD
  5
661
102
{ACAD_REACTORS
330
660
102
}
330
660
100
AcDbXrecord
280
     1
102
RTVSPost2010Prop28
280
     0
102
RTVSPost2010PropOp28
 70
     1
102
RTVSPost2010Prop29
280
     1
102
RTVSPost2010PropOp29
 70
     1
102
RTVSPost2010Prop30
280
     1
102
RTVSPost2010PropOp30
 70
     1
102
RTVSPost2010Prop31
280
     0
102
RTVSPost2010PropOp31
 70
     1
102
RTVSPost2010Prop32
280
     0
102
RTVSPost2010PropOp32
 70
     1
102
RTVSPost2010Prop33
280
     0
102
RTVSPost2010PropOp33
 70
     1
102
RTVSPost2010Prop34
280
     0
102
RTVSPost2010PropOp34
 70
     1
102
RTVSPost2010Prop35
280
     0
102
RTVSPost2010PropOp35
 70
     1
102
RTVSPost2010Prop36
280
     0
102
RTVSPost2010PropOp36
 70
     1
102
RTVSPost2010Prop37
 90
       50
102
RTVSPost2010PropOp37
 70
     1
102
RTVSPost2010Prop38
140
0.0
102
RTVSPost2010PropOp38
 70
     1
102
RTVSPost2010Prop39
140
1.0
102
RTVSPost2010PropOp39
 70
     1
102
RTVSPost2010Prop40
 90
        0
102
RTVSPost2010PropOp40
 70
     1
102
RTVSPost2010Prop41ColorIndex
 90
       18
102
RTVSPost2010Prop41ColorRGB
 90
        0
102
RTVSPost2010PropOp41
 70
     1
102
RTVSPost2010Prop42
 90
       50
102
RTVSPost2010PropOp42
 70
     1
102
RTVSPost2010Prop43
 90
        3
102
RTVSPost2010PropOp43
 70
     1
102
RTVSPost2010Prop44ColorIndex
 90
        5
102
RTVSPost2010Prop44ColorRGB
 90
      255
102
RTVSPost2010PropOp44
 70
     1
102
RTVSPost2010Prop45
280
     0
102
RTVSPost2010PropOp45
 70
     1
102
RTVSPost2010Prop46
 90
       50
102
RTVSPost2010PropOp46
 70
     1
102
RTVSPost2010Prop47
 90
       50
102
RTVSPost2010PropOp47
 70
     1
102
RTVSPost2010Prop48
 90
       50
102
RTVSPost2010PropOp48
 70
     1
102
RTVSPost2010Prop49
280
     0
102
RTVSPost2010PropOp49
 70
     1
102
RTVSPost2010Prop50
 90
       50
102
RTVSPost2010PropOp50
 70
     1
102
RTVSPost2010Prop51ColorIndex
 90
      256
102
RTVSPost2010Prop51ColorRGB
 90
-16777216
102
RTVSPost2010PropOp51
 70
     0
102
RTVSPost2010Prop52
140
1.0
102
RTVSPost2010PropOp52
 70
     0
102
RTVSPost2010Prop53
 90
        2
102
RTVSPost2010PropOp53
 70
     1
102
RTVSPost2010Prop54
  1
strokes_ogs.tif
102
RTVSPost2010PropOp54
 70
     1
102
RTVSPost2010Prop55
280
     0
102
RTVSPost2010PropOp55
 70
     1
102
RTVSPost2010Prop56
140
1.0
102
RTVSPost2010PropOp56
 70
     1
102
RTVSPost2010Prop57
140
1.0
102
RTVSPost2010PropOp57
 70
     1
102
RTVSPropertyOp0
 70
     1
102
RTVSPropertyOp1
 70
     1
102
RTVSPropertyOp2
 70
     1
102
RTVSPropertyOp3
 70
     1
102
RTVSPropertyOp4
 70
     1
102
RTVSPropertyOp5
 70
     1
102
RTVSPropertyOp6
 70
     1
102
RTVSPropertyOp7
 70
     1
102
RTVSPropertyOp8
 70
     1
102
RTVSPropertyOp9
 70
     1
102
RTVSPropertyOp10
 70
     1
102
RTVSPropertyOp11
 70
     1
102
RTVSPropertyOp12
 70
     1
102
RTVSPropertyOp13
 70
     1
102
RTVSPropertyOp14
 70
     1
102
RTVSPropertyOp15
 70
     1
102
RTVSPropertyOp16
 70
     1
102
RTVSPropertyOp17
 70
     1
102
RTVSPropertyOp18
 70
     1
102
RTVSPropertyOp19
 70
     1
102
RTVSPropertyOp20
 70
     1
102
RTVSPropertyOp21
 70
     1
102
RTVSPropertyOp22
 70
     1
102
RTVSPropertyOp23
 70
     1
102
RTVSPropertyOp24
 70
     1
102
RTVSPropertyOp25
 70
     1
102
RTVSPropertyOp26
 70
     1
102
RTVSPropertyOp27
 70
     1
102
RTVSPropertyOp28
 70
     1
102
RTVSPropertyOp29
 70
     1
102
RTVSPropertyOp30
 70
     1
102
RTVSPropertyOp31
 70
     1
102
RTVSPropertyOp32
 70
     1
102
RTVSPropertyOp33
 70
     1
102
RTVSPropertyOp34
 70
     1
102
RTVSPropertyOp35
 70
     1
102
RTVSPropertyOp36
 70
     1
102
RTVSPropertyOp37
 70
     1
102
RTVSPropertyOp38
 70
     1
102
RTVSPropertyOp39
 70
     1
102
RTVSPropertyOp40
 70
     1
102
RTVSPropertyOp41
 70
     1
102
RTVSPropertyOp42
 70
     1
102
RTVSPropertyOp43
 70
     1
102
RTVSPropertyOp44
 70
     1
102
RTVSPropertyOp45
 70
     1
102
RTVSPropertyOp46
 70
     1
102
RTVSPropertyOp47
 70
     1
102
RTVSPropertyOp48
 70
     1
102
RTVSPropertyOp49
 70
     1
102
RTVSPropertyOp50
 70
     1
102
RTVSPropertyOp51
 70
     0
102
RTVSPropertyOp52
 70
     0
102
RTVSPropertyOp53
 70
     1
102
RTVSPropertyOp54
 70
     1
102
RTVSPropertyOp55
 70
     1
102
RTVSPropertyOp56
 70
     1
102
RTVSPropertyOp57
 70
     1
102
RTVSPropertyOp58
 70
     1
102
RTVSPropertyOp59
 70
     1
102
RTVSPropertyOp60
 70
     1
102
RTVSPropertyOp61
 70
     1
102
RTVSPropertyOp62
 70
     1
  0
XRECORD
  5
663
102
{ACAD_REACTORS
330
662
102
}
330
662
100
AcDbXrecord
280
     1
102
RTVSPost2010Prop28
280
     0
102
RTVSPost2010PropOp28
 70
     1
102
RTVSPost2010Prop29
280
     1
102
RTVSPost2010PropOp29
 70
     1
102
RTVSPost2010Prop30
280
     1
102
RTVSPost2010PropOp30
 70
     1
102
RTVSPost2010Prop31
280
     0
102
RTVSPost2010PropOp31
 70
     1
102
RTVSPost2010Prop32
280
     0
102
RTVSPost2010PropOp32
 70
     1
102
RTVSPost2010Prop33
280
     0
102
RTVSPost2010PropOp33
 70
     1
102
RTVSPost2010Prop34
280
     0
102
RTVSPost2010PropOp34
 70
     1
102
RTVSPost2010Prop35
280
     0
102
RTVSPost2010PropOp35
 70
     1
102
RTVSPost2010Prop36
280
     0
102
RTVSPost2010PropOp36
 70
     1
102
RTVSPost2010Prop37
 90
       50
102
RTVSPost2010PropOp37
 70
     1
102
RTVSPost2010Prop38
140
0.0
102
RTVSPost2010PropOp38
 70
     1
102
RTVSPost2010Prop39
140
1.0
102
RTVSPost2010PropOp39
 70
     1
102
RTVSPost2010Prop40
 90
        0
102
RTVSPost2010PropOp40
 70
     1
102
RTVSPost2010Prop41ColorIndex
 90
       18
102
RTVSPost2010Prop41ColorRGB
 90
        0
102
RTVSPost2010PropOp41
 70
     1
102
RTVSPost2010Prop42
 90
       50
102
RTVSPost2010PropOp42
 70
     1
102
RTVSPost2010Prop43
 90
        3
102
RTVSPost2010PropOp43
 70
     1
102
RTVSPost2010Prop44ColorIndex
 90
        5
102
RTVSPost2010Prop44ColorRGB
 90
      255
102
RTVSPost2010PropOp44
 70
     1
102
RTVSPost2010Prop45
280
     0
102
RTVSPost2010PropOp45
 70
     1
102
RTVSPost2010Prop46
 90
       50
102
RTVSPost2010PropOp46
 70
     1
102
RTVSPost2010Prop47
 90
       50
102
RTVSPost2010PropOp47
 70
     1
102
RTVSPost2010Prop48
 90
       50
102
RTVSPost2010PropOp48
 70
     1
102
RTVSPost2010Prop49
280
     0
102
RTVSPost2010PropOp49
 70
     1
102
RTVSPost2010Prop50
 90
       50
102
RTVSPost2010PropOp50
 70
     1
102
RTVSPost2010Prop51ColorIndex
 90
      256
102
RTVSPost2010Prop51ColorRGB
 90
-16777216
102
RTVSPost2010PropOp51
 70
     0
102
RTVSPost2010Prop52
140
1.0
102
RTVSPost2010PropOp52
 70
     0
102
RTVSPost2010Prop53
 90
        2
102
RTVSPost2010PropOp53
 70
     1
102
RTVSPost2010Prop54
  1
strokes_ogs.tif
102
RTVSPost2010PropOp54
 70
     1
102
RTVSPost2010Prop55
280
     0
102
RTVSPost2010PropOp55
 70
     1
102
RTVSPost2010Prop56
140
1.0
102
RTVSPost2010PropOp56
 70
     1
102
RTVSPost2010Prop57
140
1.0
102
RTVSPost2010PropOp57
 70
     1
102
RTVSPropertyOp0
 70
     1
102
RTVSPropertyOp1
 70
     1
102
RTVSPropertyOp2
 70
     1
102
RTVSPropertyOp3
 70
     1
102
RTVSPropertyOp4
 70
     1
102
RTVSPropertyOp5
 70
     1
102
RTVSPropertyOp6
 70
     1
102
RTVSPropertyOp7
 70
     1
102
RTVSPropertyOp8
 70
     1
102
RTVSPropertyOp9
 70
     1
102
RTVSPropertyOp10
 70
     1
102
RTVSPropertyOp11
 70
     1
102
RTVSPropertyOp12
 70
     1
102
RTVSPropertyOp13
 70
     1
102
RTVSPropertyOp14
 70
     1
102
RTVSPropertyOp15
 70
     1
102
RTVSPropertyOp16
 70
     1
102
RTVSPropertyOp17
 70
     1
102
RTVSPropertyOp18
 70
     1
102
RTVSPropertyOp19
 70
     1
102
RTVSPropertyOp20
 70
     1
102
RTVSPropertyOp21
 70
     1
102
RTVSPropertyOp22
 70
     1
102
RTVSPropertyOp23
 70
     1
102
RTVSPropertyOp24
 70
     1
102
RTVSPropertyOp25
 70
     1
102
RTVSPropertyOp26
 70
     1
102
RTVSPropertyOp27
 70
     1
102
RTVSPropertyOp28
 70
     1
102
RTVSPropertyOp29
 70
     1
102
RTVSPropertyOp30
 70
     1
102
RTVSPropertyOp31
 70
     1
102
RTVSPropertyOp32
 70
     1
102
RTVSPropertyOp33
 70
     1
102
RTVSPropertyOp34
 70
     1
102
RTVSPropertyOp35
 70
     1
102
RTVSPropertyOp36
 70
     1
102
RTVSPropertyOp37
 70
     1
102
RTVSPropertyOp38
 70
     1
102
RTVSPropertyOp39
 70
     1
102
RTVSPropertyOp40
 70
     1
102
RTVSPropertyOp41
 70
     1
102
RTVSPropertyOp42
 70
     1
102
RTVSPropertyOp43
 70
     1
102
RTVSPropertyOp44
 70
     1
102
RTVSPropertyOp45
 70
     1
102
RTVSPropertyOp46
 70
     1
102
RTVSPropertyOp47
 70
     1
102
RTVSPropertyOp48
 70
     1
102
RTVSPropertyOp49
 70
     1
102
RTVSPropertyOp50
 70
     1
102
RTVSPropertyOp51
 70
     0
102
RTVSPropertyOp52
 70
     0
102
RTVSPropertyOp53
 70
     1
102
RTVSPropertyOp54
 70
     1
102
RTVSPropertyOp55
 70
     1
102
RTVSPropertyOp56
 70
     1
102
RTVSPropertyOp57
 70
     1
102
RTVSPropertyOp58
 70
     1
102
RTVSPropertyOp59
 70
     1
102
RTVSPropertyOp60
 70
     1
102
RTVSPropertyOp61
 70
     1
102
RTVSPropertyOp62
 70
     1
  0
XRECORD
  5
665
102
{ACAD_REACTORS
330
664
102
}
330
664
100
AcDbXrecord
280
     1
102
RTVSPost2010Prop28
280
     0
102
RTVSPost2010PropOp28
 70
     1
102
RTVSPost2010Prop29
280
     1
102
RTVSPost2010PropOp29
 70
     1
102
RTVSPost2010Prop30
280
     1
102
RTVSPost2010PropOp30
 70
     1
102
RTVSPost2010Prop31
280
     0
102
RTVSPost2010PropOp31
 70
     1
102
RTVSPost2010Prop32
280
     0
102
RTVSPost2010PropOp32
 70
     1
102
RTVSPost2010Prop33
280
     0
102
RTVSPost2010PropOp33
 70
     1
102
RTVSPost2010Prop34
280
     0
102
RTVSPost2010PropOp34
 70
     1
102
RTVSPost2010Prop35
280
     0
102
RTVSPost2010PropOp35
 70
     1
102
RTVSPost2010Prop36
280
     0
102
RTVSPost2010PropOp36
 70
     1
102
RTVSPost2010Prop37
 90
       50
102
RTVSPost2010PropOp37
 70
     1
102
RTVSPost2010Prop38
140
0.0
102
RTVSPost2010PropOp38
 70
     1
102
RTVSPost2010Prop39
140
1.0
102
RTVSPost2010PropOp39
 70
     1
102
RTVSPost2010Prop40
 90
        0
102
RTVSPost2010PropOp40
 70
     1
102
RTVSPost2010Prop41ColorIndex
 90
       18
102
RTVSPost2010Prop41ColorRGB
 90
        0
102
RTVSPost2010PropOp41
 70
     1
102
RTVSPost2010Prop42
 90
       50
102
RTVSPost2010PropOp42
 70
     1
102
RTVSPost2010Prop43
 90
        3
102
RTVSPost2010PropOp43
 70
     1
102
RTVSPost2010Prop44ColorIndex
 90
        5
102
RTVSPost2010Prop44ColorRGB
 90
      255
102
RTVSPost2010PropOp44
 70
     1
102
RTVSPost2010Prop45
280
     0
102
RTVSPost2010PropOp45
 70
     1
102
RTVSPost2010Prop46
 90
       50
102
RTVSPost2010PropOp46
 70
     1
102
RTVSPost2010Prop47
 90
       50
102
RTVSPost2010PropOp47
 70
     1
102
RTVSPost2010Prop48
 90
       50
102
RTVSPost2010PropOp48
 70
     1
102
RTVSPost2010Prop49
280
     0
102
RTVSPost2010PropOp49
 70
     1
102
RTVSPost2010Prop50
 90
       50
102
RTVSPost2010PropOp50
 70
     1
102
RTVSPost2010Prop51ColorIndex
 90
      256
102
RTVSPost2010Prop51ColorRGB
 90
-16777216
102
RTVSPost2010PropOp51
 70
     0
102
RTVSPost2010Prop52
140
1.0
102
RTVSPost2010PropOp52
 70
     0
102
RTVSPost2010Prop53
 90
        2
102
RTVSPost2010PropOp53
 70
     1
102
RTVSPost2010Prop54
  1
strokes_ogs.tif
102
RTVSPost2010PropOp54
 70
     1
102
RTVSPost2010Prop55
280
     0
102
RTVSPost2010PropOp55
 70
     1
102
RTVSPost2010Prop56
140
1.0
102
RTVSPost2010PropOp56
 70
     1
102
RTVSPost2010Prop57
140
1.0
102
RTVSPost2010PropOp57
 70
     1
102
RTVSPropertyOp0
 70
     1
102
RTVSPropertyOp1
 70
     1
102
RTVSPropertyOp2
 70
     1
102
RTVSPropertyOp3
 70
     1
102
RTVSPropertyOp4
 70
     1
102
RTVSPropertyOp5
 70
     1
102
RTVSPropertyOp6
 70
     1
102
RTVSPropertyOp7
 70
     1
102
RTVSPropertyOp8
 70
     1
102
RTVSPropertyOp9
 70
     1
102
RTVSPropertyOp10
 70
     1
102
RTVSPropertyOp11
 70
     1
102
RTVSPropertyOp12
 70
     1
102
RTVSPropertyOp13
 70
     1
102
RTVSPropertyOp14
 70
     1
102
RTVSPropertyOp15
 70
     1
102
RTVSPropertyOp16
 70
     1
102
RTVSPropertyOp17
 70
     1
102
RTVSPropertyOp18
 70
     1
102
RTVSPropertyOp19
 70
     1
102
RTVSPropertyOp20
 70
     1
102
RTVSPropertyOp21
 70
     1
102
RTVSPropertyOp22
 70
     1
102
RTVSPropertyOp23
 70
     1
102
RTVSPropertyOp24
 70
     1
102
RTVSPropertyOp25
 70
     1
102
RTVSPropertyOp26
 70
     1
102
RTVSPropertyOp27
 70
     1
102
RTVSPropertyOp28
 70
     1
102
RTVSPropertyOp29
 70
     1
102
RTVSPropertyOp30
 70
     1
102
RTVSPropertyOp31
 70
     1
102
RTVSPropertyOp32
 70
     1
102
RTVSPropertyOp33
 70
     1
102
RTVSPropertyOp34
 70
     1
102
RTVSPropertyOp35
 70
     1
102
RTVSPropertyOp36
 70
     1
102
RTVSPropertyOp37
 70
     1
102
RTVSPropertyOp38
 70
     1
102
RTVSPropertyOp39
 70
     1
102
RTVSPropertyOp40
 70
     1
102
RTVSPropertyOp41
 70
     1
102
RTVSPropertyOp42
 70
     1
102
RTVSPropertyOp43
 70
     1
102
RTVSPropertyOp44
 70
     1
102
RTVSPropertyOp45
 70
     1
102
RTVSPropertyOp46
 70
     1
102
RTVSPropertyOp47
 70
     1
102
RTVSPropertyOp48
 70
     1
102
RTVSPropertyOp49
 70
     1
102
RTVSPropertyOp50
 70
     1
102
RTVSPropertyOp51
 70
     0
102
RTVSPropertyOp52
 70
     0
102
RTVSPropertyOp53
 70
     1
102
RTVSPropertyOp54
 70
     1
102
RTVSPropertyOp55
 70
     1
102
RTVSPropertyOp56
 70
     1
102
RTVSPropertyOp57
 70
     1
102
RTVSPropertyOp58
 70
     1
102
RTVSPropertyOp59
 70
     1
102
RTVSPropertyOp60
 70
     1
102
RTVSPropertyOp61
 70
     1
102
RTVSPropertyOp62
 70
     1
  0
XRECORD
  5
667
102
{ACAD_REACTORS
330
666
102
}
330
666
100
AcDbXrecord
280
     1
102
RTVSPost2010Prop28
280
     0
102
RTVSPost2010PropOp28
 70
     1
102
RTVSPost2010Prop29
280
     1
102
RTVSPost2010PropOp29
 70
     1
102
RTVSPost2010Prop30
280
     1
102
RTVSPost2010PropOp30
 70
     1
102
RTVSPost2010Prop31
280
     0
102
RTVSPost2010PropOp31
 70
     1
102
RTVSPost2010Prop32
280
     0
102
RTVSPost2010PropOp32
 70
     1
102
RTVSPost2010Prop33
280
     0
102
RTVSPost2010PropOp33
 70
     1
102
RTVSPost2010Prop34
280
     0
102
RTVSPost2010PropOp34
 70
     1
102
RTVSPost2010Prop35
280
     0
102
RTVSPost2010PropOp35
 70
     1
102
RTVSPost2010Prop36
280
     0
102
RTVSPost2010PropOp36
 70
     1
102
RTVSPost2010Prop37
 90
       50
102
RTVSPost2010PropOp37
 70
     1
102
RTVSPost2010Prop38
140
0.0
102
RTVSPost2010PropOp38
 70
     1
102
RTVSPost2010Prop39
140
1.0
102
RTVSPost2010PropOp39
 70
     1
102
RTVSPost2010Prop40
 90
        0
102
RTVSPost2010PropOp40
 70
     1
102
RTVSPost2010Prop41ColorIndex
 90
       18
102
RTVSPost2010Prop41ColorRGB
 90
        0
102
RTVSPost2010PropOp41
 70
     1
102
RTVSPost2010Prop42
 90
       50
102
RTVSPost2010PropOp42
 70
     1
102
RTVSPost2010Prop43
 90
        3
102
RTVSPost2010PropOp43
 70
     1
102
RTVSPost2010Prop44ColorIndex
 90
        5
102
RTVSPost2010Prop44ColorRGB
 90
      255
102
RTVSPost2010PropOp44
 70
     1
102
RTVSPost2010Prop45
280
     0
102
RTVSPost2010PropOp45
 70
     1
102
RTVSPost2010Prop46
 90
       50
102
RTVSPost2010PropOp46
 70
     1
102
RTVSPost2010Prop47
 90
       50
102
RTVSPost2010PropOp47
 70
     1
102
RTVSPost2010Prop48
 90
       50
102
RTVSPost2010PropOp48
 70
     1
102
RTVSPost2010Prop49
280
     0
102
RTVSPost2010PropOp49
 70
     1
102
RTVSPost2010Prop50
 90
       50
102
RTVSPost2010PropOp50
 70
     1
102
RTVSPost2010Prop51ColorIndex
 90
      256
102
RTVSPost2010Prop51ColorRGB
 90
-16777216
102
RTVSPost2010PropOp51
 70
     0
102
RTVSPost2010Prop52
140
1.0
102
RTVSPost2010PropOp52
 70
     0
102
RTVSPost2010Prop53
 90
        2
102
RTVSPost2010PropOp53
 70
     1
102
RTVSPost2010Prop54
  1
strokes_ogs.tif
102
RTVSPost2010PropOp54
 70
     1
102
RTVSPost2010Prop55
280
     0
102
RTVSPost2010PropOp55
 70
     1
102
RTVSPost2010Prop56
140
1.0
102
RTVSPost2010PropOp56
 70
     1
102
RTVSPost2010Prop57
140
1.0
102
RTVSPost2010PropOp57
 70
     1
102
RTVSPropertyOp0
 70
     1
102
RTVSPropertyOp1
 70
     1
102
RTVSPropertyOp2
 70
     1
102
RTVSPropertyOp3
 70
     1
102
RTVSPropertyOp4
 70
     1
102
RTVSPropertyOp5
 70
     1
102
RTVSPropertyOp6
 70
     1
102
RTVSPropertyOp7
 70
     1
102
RTVSPropertyOp8
 70
     1
102
RTVSPropertyOp9
 70
     1
102
RTVSPropertyOp10
 70
     1
102
RTVSPropertyOp11
 70
     1
102
RTVSPropertyOp12
 70
     1
102
RTVSPropertyOp13
 70
     1
102
RTVSPropertyOp14
 70
     1
102
RTVSPropertyOp15
 70
     1
102
RTVSPropertyOp16
 70
     1
102
RTVSPropertyOp17
 70
     1
102
RTVSPropertyOp18
 70
     1
102
RTVSPropertyOp19
 70
     1
102
RTVSPropertyOp20
 70
     1
102
RTVSPropertyOp21
 70
     1
102
RTVSPropertyOp22
 70
     1
102
RTVSPropertyOp23
 70
     1
102
RTVSPropertyOp24
 70
     1
102
RTVSPropertyOp25
 70
     1
102
RTVSPropertyOp26
 70
     1
102
RTVSPropertyOp27
 70
     1
102
RTVSPropertyOp28
 70
     1
102
RTVSPropertyOp29
 70
     1
102
RTVSPropertyOp30
 70
     1
102
RTVSPropertyOp31
 70
     1
102
RTVSPropertyOp32
 70
     1
102
RTVSPropertyOp33
 70
     1
102
RTVSPropertyOp34
 70
     1
102
RTVSPropertyOp35
 70
     1
102
RTVSPropertyOp36
 70
     1
102
RTVSPropertyOp37
 70
     1
102
RTVSPropertyOp38
 70
     1
102
RTVSPropertyOp39
 70
     1
102
RTVSPropertyOp40
 70
     1
102
RTVSPropertyOp41
 70
     1
102
RTVSPropertyOp42
 70
     1
102
RTVSPropertyOp43
 70
     1
102
RTVSPropertyOp44
 70
     1
102
RTVSPropertyOp45
 70
     1
102
RTVSPropertyOp46
 70
     1
102
RTVSPropertyOp47
 70
     1
102
RTVSPropertyOp48
 70
     1
102
RTVSPropertyOp49
 70
     1
102
RTVSPropertyOp50
 70
     1
102
RTVSPropertyOp51
 70
     0
102
RTVSPropertyOp52
 70
     0
102
RTVSPropertyOp53
 70
     1
102
RTVSPropertyOp54
 70
     1
102
RTVSPropertyOp55
 70
     1
102
RTVSPropertyOp56
 70
     1
102
RTVSPropertyOp57
 70
     1
102
RTVSPropertyOp58
 70
     1
102
RTVSPropertyOp59
 70
     1
102
RTVSPropertyOp60
 70
     1
102
RTVSPropertyOp61
 70
     1
102
RTVSPropertyOp62
 70
     1
  0
XRECORD
  5
690
102
{ACAD_REACTORS
330
68F
102
}
330
68F
100
AcDbXrecord
280
     1
102
RTVSPost2010Prop28
280
     0
102
RTVSPost2010PropOp28
 70
     1
102
RTVSPost2010Prop29
280
     1
102
RTVSPost2010PropOp29
 70
     1
102
RTVSPost2010Prop30
280
     1
102
RTVSPost2010PropOp30
 70
     1
102
RTVSPost2010Prop31
280
     0
102
RTVSPost2010PropOp31
 70
     1
102
RTVSPost2010Prop32
280
     0
102
RTVSPost2010PropOp32
 70
     1
102
RTVSPost2010Prop33
280
     0
102
RTVSPost2010PropOp33
 70
     1
102
RTVSPost2010Prop34
280
     0
102
RTVSPost2010PropOp34
 70
     1
102
RTVSPost2010Prop35
280
     0
102
RTVSPost2010PropOp35
 70
     1
102
RTVSPost2010Prop36
280
     0
102
RTVSPost2010PropOp36
 70
     1
102
RTVSPost2010Prop37
 90
       50
102
RTVSPost2010PropOp37
 70
     1
102
RTVSPost2010Prop38
140
0.0
102
RTVSPost2010PropOp38
 70
     1
102
RTVSPost2010Prop39
140
1.0
102
RTVSPost2010PropOp39
 70
     1
102
RTVSPost2010Prop40
 90
        0
102
RTVSPost2010PropOp40
 70
     1
102
RTVSPost2010Prop41ColorIndex
 90
       18
102
RTVSPost2010Prop41ColorRGB
 90
        0
102
RTVSPost2010PropOp41
 70
     1
102
RTVSPost2010Prop42
 90
       50
102
RTVSPost2010PropOp42
 70
     1
102
RTVSPost2010Prop43
 90
        3
102
RTVSPost2010PropOp43
 70
     1
102
RTVSPost2010Prop44ColorIndex
 90
        5
102
RTVSPost2010Prop44ColorRGB
 90
      255
102
RTVSPost2010PropOp44
 70
     1
102
RTVSPost2010Prop45
280
     0
102
RTVSPost2010PropOp45
 70
     1
102
RTVSPost2010Prop46
 90
       50
102
RTVSPost2010PropOp46
 70
     1
102
RTVSPost2010Prop47
 90
       50
102
RTVSPost2010PropOp47
 70
     1
102
RTVSPost2010Prop48
 90
       50
102
RTVSPost2010PropOp48
 70
     1
102
RTVSPost2010Prop49
280
     0
102
RTVSPost2010PropOp49
 70
     1
102
RTVSPost2010Prop50
 90
       50
102
RTVSPost2010PropOp50
 70
     1
102
RTVSPost2010Prop51ColorIndex
 90
      256
102
RTVSPost2010Prop51ColorRGB
 90
-16777216
102
RTVSPost2010PropOp51
 70
     0
102
RTVSPost2010Prop52
140
1.0
102
RTVSPost2010PropOp52
 70
     0
102
RTVSPost2010Prop53
 90
        2
102
RTVSPost2010PropOp53
 70
     1
102
RTVSPost2010Prop54
  1
strokes_ogs.tif
102
RTVSPost2010PropOp54
 70
     1
102
RTVSPost2010Prop55
280
     0
102
RTVSPost2010PropOp55
 70
     1
102
RTVSPost2010Prop56
140
1.0
102
RTVSPost2010PropOp56
 70
     1
102
RTVSPost2010Prop57
140
1.0
102
RTVSPost2010PropOp57
 70
     1
102
RTVSPropertyOp0
 70
     1
102
RTVSPropertyOp1
 70
     1
102
RTVSPropertyOp2
 70
     1
102
RTVSPropertyOp3
 70
     1
102
RTVSPropertyOp4
 70
     1
102
RTVSPropertyOp5
 70
     1
102
RTVSPropertyOp6
 70
     1
102
RTVSPropertyOp7
 70
     1
102
RTVSPropertyOp8
 70
     1
102
RTVSPropertyOp9
 70
     1
102
RTVSPropertyOp10
 70
     1
102
RTVSPropertyOp11
 70
     1
102
RTVSPropertyOp12
 70
     1
102
RTVSPropertyOp13
 70
     1
102
RTVSPropertyOp14
 70
     1
102
RTVSPropertyOp15
 70
     1
102
RTVSPropertyOp16
 70
     1
102
RTVSPropertyOp17
 70
     1
102
RTVSPropertyOp18
 70
     1
102
RTVSPropertyOp19
 70
     1
102
RTVSPropertyOp20
 70
     1
102
RTVSPropertyOp21
 70
     1
102
RTVSPropertyOp22
 70
     1
102
RTVSPropertyOp23
 70
     1
102
RTVSPropertyOp24
 70
     1
102
RTVSPropertyOp25
 70
     1
102
RTVSPropertyOp26
 70
     1
102
RTVSPropertyOp27
 70
     1
102
RTVSPropertyOp28
 70
     1
102
RTVSPropertyOp29
 70
     1
102
RTVSPropertyOp30
 70
     1
102
RTVSPropertyOp31
 70
     1
102
RTVSPropertyOp32
 70
     1
102
RTVSPropertyOp33
 70
     1
102
RTVSPropertyOp34
 70
     1
102
RTVSPropertyOp35
 70
     1
102
RTVSPropertyOp36
 70
     1
102
RTVSPropertyOp37
 70
     1
102
RTVSPropertyOp38
 70
     1
102
RTVSPropertyOp39
 70
     1
102
RTVSPropertyOp40
 70
     1
102
RTVSPropertyOp41
 70
     1
102
RTVSPropertyOp42
 70
     1
102
RTVSPropertyOp43
 70
     1
102
RTVSPropertyOp44
 70
     1
102
RTVSPropertyOp45
 70
     1
102
RTVSPropertyOp46
 70
     1
102
RTVSPropertyOp47
 70
     1
102
RTVSPropertyOp48
 70
     1
102
RTVSPropertyOp49
 70
     1
102
RTVSPropertyOp50
 70
     1
102
RTVSPropertyOp51
 70
     0
102
RTVSPropertyOp52
 70
     0
102
RTVSPropertyOp53
 70
     1
102
RTVSPropertyOp54
 70
     1
102
RTVSPropertyOp55
 70
     1
102
RTVSPropertyOp56
 70
     1
102
RTVSPropertyOp57
 70
     1
102
RTVSPropertyOp58
 70
     1
102
RTVSPropertyOp59
 70
     1
102
RTVSPropertyOp60
 70
     1
102
RTVSPropertyOp61
 70
     1
102
RTVSPropertyOp62
 70
     1
  0
XRECORD
  5
681
102
{ACAD_REACTORS
330
680
102
}
330
680
100
AcDbXrecord
280
     1
102
RTVSPost2010Prop28
280
     0
102
RTVSPost2010PropOp28
 70
     1
102
RTVSPost2010Prop29
280
     1
102
RTVSPost2010PropOp29
 70
     1
102
RTVSPost2010Prop30
280
     1
102
RTVSPost2010PropOp30
 70
     1
102
RTVSPost2010Prop31
280
     0
102
RTVSPost2010PropOp31
 70
     1
102
RTVSPost2010Prop32
280
     0
102
RTVSPost2010PropOp32
 70
     1
102
RTVSPost2010Prop33
280
     0
102
RTVSPost2010PropOp33
 70
     1
102
RTVSPost2010Prop34
280
     0
102
RTVSPost2010PropOp34
 70
     1
102
RTVSPost2010Prop35
280
     0
102
RTVSPost2010PropOp35
 70
     1
102
RTVSPost2010Prop36
280
     0
102
RTVSPost2010PropOp36
 70
     1
102
RTVSPost2010Prop37
 90
       50
102
RTVSPost2010PropOp37
 70
     1
102
RTVSPost2010Prop38
140
0.0
102
RTVSPost2010PropOp38
 70
     1
102
RTVSPost2010Prop39
140
1.0
102
RTVSPost2010PropOp39
 70
     1
102
RTVSPost2010Prop40
 90
        0
102
RTVSPost2010PropOp40
 70
     1
102
RTVSPost2010Prop41ColorIndex
 90
       18
102
RTVSPost2010Prop41ColorRGB
 90
        0
102
RTVSPost2010PropOp41
 70
     1
102
RTVSPost2010Prop42
 90
       50
102
RTVSPost2010PropOp42
 70
     1
102
RTVSPost2010Prop43
 90
        3
102
RTVSPost2010PropOp43
 70
     1
102
RTVSPost2010Prop44ColorIndex
 90
        5
102
RTVSPost2010Prop44ColorRGB
 90
      255
102
RTVSPost2010PropOp44
 70
     1
102
RTVSPost2010Prop45
280
     0
102
RTVSPost2010PropOp45
 70
     1
102
RTVSPost2010Prop46
 90
       50
102
RTVSPost2010PropOp46
 70
     1
102
RTVSPost2010Prop47
 90
       50
102
RTVSPost2010PropOp47
 70
     1
102
RTVSPost2010Prop48
 90
       50
102
RTVSPost2010PropOp48
 70
     1
102
RTVSPost2010Prop49
280
     0
102
RTVSPost2010PropOp49
 70
     1
102
RTVSPost2010Prop50
 90
       50
102
RTVSPost2010PropOp50
 70
     1
102
RTVSPost2010Prop51ColorIndex
 90
      256
102
RTVSPost2010Prop51ColorRGB
 90
-16777216
102
RTVSPost2010PropOp51
 70
     0
102
RTVSPost2010Prop52
140
1.0
102
RTVSPost2010PropOp52
 70
     0
102
RTVSPost2010Prop53
 90
        2
102
RTVSPost2010PropOp53
 70
     1
102
RTVSPost2010Prop54
  1
strokes_ogs.tif
102
RTVSPost2010PropOp54
 70
     1
102
RTVSPost2010Prop55
280
     0
102
RTVSPost2010PropOp55
 70
     1
102
RTVSPost2010Prop56
140
1.0
102
RTVSPost2010PropOp56
 70
     1
102
RTVSPost2010Prop57
140
1.0
102
RTVSPost2010PropOp57
 70
     1
102
RTVSPropertyOp0
 70
     0
102
RTVSPropertyOp1
 70
     0
102
RTVSPropertyOp2
 70
     0
102
RTVSPropertyOp3
 70
     0
102
RTVSPropertyOp4
 70
     0
102
RTVSPropertyOp5
 70
     0
102
RTVSPropertyOp6
 70
     0
102
RTVSPropertyOp7
 70
     0
102
RTVSPropertyOp8
 70
     0
102
RTVSPropertyOp9
 70
     0
102
RTVSPropertyOp10
 70
     0
102
RTVSPropertyOp11
 70
     0
102
RTVSPropertyOp12
 70
     0
102
RTVSPropertyOp13
 70
     0
102
RTVSPropertyOp14
 70
     2
102
RTVSPropertyOp15
 70
     0
102
RTVSPropertyOp16
 70
     0
102
RTVSPropertyOp17
 70
     0
102
RTVSPropertyOp18
 70
     0
102
RTVSPropertyOp19
 70
     0
102
RTVSPropertyOp20
 70
     0
102
RTVSPropertyOp21
 70
     0
102
RTVSPropertyOp22
 70
     0
102
RTVSPropertyOp23
 70
     0
102
RTVSPropertyOp24
 70
     0
102
RTVSPropertyOp25
 70
     0
102
RTVSPropertyOp26
 70
     0
102
RTVSPropertyOp27
 70
     0
102
RTVSPropertyOp28
 70
     1
102
RTVSPropertyOp29
 70
     1
102
RTVSPropertyOp30
 70
     1
102
RTVSPropertyOp31
 70
     1
102
RTVSPropertyOp32
 70
     1
102
RTVSPropertyOp33
 70
     1
102
RTVSPropertyOp34
 70
     1
102
RTVSPropertyOp35
 70
     1
102
RTVSPropertyOp36
 70
     1
102
RTVSPropertyOp37
 70
     1
102
RTVSPropertyOp38
 70
     1
102
RTVSPropertyOp39
 70
     1
102
RTVSPropertyOp40
 70
     1
102
RTVSPropertyOp41
 70
     1
102
RTVSPropertyOp42
 70
     1
102
RTVSPropertyOp43
 70
     1
102
RTVSPropertyOp44
 70
     1
102
RTVSPropertyOp45
 70
     1
102
RTVSPropertyOp46
 70
     1
102
RTVSPropertyOp47
 70
     1
102
RTVSPropertyOp48
 70
     1
102
RTVSPropertyOp49
 70
     1
102
RTVSPropertyOp50
 70
     1
102
RTVSPropertyOp51
 70
     0
102
RTVSPropertyOp52
 70
     0
102
RTVSPropertyOp53
 70
     1
102
RTVSPropertyOp54
 70
     1
102
RTVSPropertyOp55
 70
     1
102
RTVSPropertyOp56
 70
     1
102
RTVSPropertyOp57
 70
     1
102
RTVSPropertyOp58
 70
     1
102
RTVSPropertyOp59
 70
     1
102
RTVSPropertyOp60
 70
     1
102
RTVSPropertyOp61
 70
     1
102
RTVSPropertyOp62
 70
     1
  0
XRECORD
  5
67B
102
{ACAD_REACTORS
330
67A
102
}
330
67A
100
AcDbXrecord
280
     1
102
RTVSPost2010Prop28
280
     0
102
RTVSPost2010PropOp28
 70
     1
102
RTVSPost2010Prop29
280
     1
102
RTVSPost2010PropOp29
 70
     1
102
RTVSPost2010Prop30
280
     1
102
RTVSPost2010PropOp30
 70
     1
102
RTVSPost2010Prop31
280
     0
102
RTVSPost2010PropOp31
 70
     1
102
RTVSPost2010Prop32
280
     0
102
RTVSPost2010PropOp32
 70
     1
102
RTVSPost2010Prop33
280
     0
102
RTVSPost2010PropOp33
 70
     1
102
RTVSPost2010Prop34
280
     0
102
RTVSPost2010PropOp34
 70
     1
102
RTVSPost2010Prop35
280
     0
102
RTVSPost2010PropOp35
 70
     1
102
RTVSPost2010Prop36
280
     0
102
RTVSPost2010PropOp36
 70
     1
102
RTVSPost2010Prop37
 90
       50
102
RTVSPost2010PropOp37
 70
     1
102
RTVSPost2010Prop38
140
0.0
102
RTVSPost2010PropOp38
 70
     1
102
RTVSPost2010Prop39
140
1.0
102
RTVSPost2010PropOp39
 70
     1
102
RTVSPost2010Prop40
 90
        0
102
RTVSPost2010PropOp40
 70
     1
102
RTVSPost2010Prop41ColorIndex
 90
       18
102
RTVSPost2010Prop41ColorRGB
 90
        0
102
RTVSPost2010PropOp41
 70
     1
102
RTVSPost2010Prop42
 90
       50
102
RTVSPost2010PropOp42
 70
     1
102
RTVSPost2010Prop43
 90
        3
102
RTVSPost2010PropOp43
 70
     1
102
RTVSPost2010Prop44ColorIndex
 90
        5
102
RTVSPost2010Prop44ColorRGB
 90
      255
102
RTVSPost2010PropOp44
 70
     1
102
RTVSPost2010Prop45
280
     0
102
RTVSPost2010PropOp45
 70
     1
102
RTVSPost2010Prop46
 90
       50
102
RTVSPost2010PropOp46
 70
     1
102
RTVSPost2010Prop47
 90
       50
102
RTVSPost2010PropOp47
 70
     1
102
RTVSPost2010Prop48
 90
       50
102
RTVSPost2010PropOp48
 70
     1
102
RTVSPost2010Prop49
280
     0
102
RTVSPost2010PropOp49
 70
     1
102
RTVSPost2010Prop50
 90
       50
102
RTVSPost2010PropOp50
 70
     1
102
RTVSPost2010Prop51ColorIndex
 90
      256
102
RTVSPost2010Prop51ColorRGB
 90
-16777216
102
RTVSPost2010PropOp51
 70
     0
102
RTVSPost2010Prop52
140
1.0
102
RTVSPost2010PropOp52
 70
     0
102
RTVSPost2010Prop53
 90
        2
102
RTVSPost2010PropOp53
 70
     1
102
RTVSPost2010Prop54
  1
strokes_ogs.tif
102
RTVSPost2010PropOp54
 70
     1
102
RTVSPost2010Prop55
280
     0
102
RTVSPost2010PropOp55
 70
     1
102
RTVSPost2010Prop56
140
1.0
102
RTVSPost2010PropOp56
 70
     1
102
RTVSPost2010Prop57
140
1.0
102
RTVSPost2010PropOp57
 70
     1
102
RTVSPropertyOp0
 70
     1
102
RTVSPropertyOp1
 70
     1
102
RTVSPropertyOp2
 70
     1
102
RTVSPropertyOp3
 70
     1
102
RTVSPropertyOp4
 70
     1
102
RTVSPropertyOp5
 70
     1
102
RTVSPropertyOp6
 70
     1
102
RTVSPropertyOp7
 70
     1
102
RTVSPropertyOp8
 70
     1
102
RTVSPropertyOp9
 70
     1
102
RTVSPropertyOp10
 70
     1
102
RTVSPropertyOp11
 70
     1
102
RTVSPropertyOp12
 70
     1
102
RTVSPropertyOp13
 70
     1
102
RTVSPropertyOp14
 70
     1
102
RTVSPropertyOp15
 70
     1
102
RTVSPropertyOp16
 70
     1
102
RTVSPropertyOp17
 70
     1
102
RTVSPropertyOp18
 70
     1
102
RTVSPropertyOp19
 70
     1
102
RTVSPropertyOp20
 70
     1
102
RTVSPropertyOp21
 70
     1
102
RTVSPropertyOp22
 70
     1
102
RTVSPropertyOp23
 70
     1
102
RTVSPropertyOp24
 70
     1
102
RTVSPropertyOp25
 70
     1
102
RTVSPropertyOp26
 70
     1
102
RTVSPropertyOp27
 70
     1
102
RTVSPropertyOp28
 70
     1
102
RTVSPropertyOp29
 70
     1
102
RTVSPropertyOp30
 70
     1
102
RTVSPropertyOp31
 70
     1
102
RTVSPropertyOp32
 70
     1
102
RTVSPropertyOp33
 70
     1
102
RTVSPropertyOp34
 70
     1
102
RTVSPropertyOp35
 70
     1
102
RTVSPropertyOp36
 70
     1
102
RTVSPropertyOp37
 70
     1
102
RTVSPropertyOp38
 70
     1
102
RTVSPropertyOp39
 70
     1
102
RTVSPropertyOp40
 70
     1
102
RTVSPropertyOp41
 70
     1
102
RTVSPropertyOp42
 70
     1
102
RTVSPropertyOp43
 70
     1
102
RTVSPropertyOp44
 70
     1
102
RTVSPropertyOp45
 70
     1
102
RTVSPropertyOp46
 70
     1
102
RTVSPropertyOp47
 70
     1
102
RTVSPropertyOp48
 70
     1
102
RTVSPropertyOp49
 70
     1
102
RTVSPropertyOp50
 70
     1
102
RTVSPropertyOp51
 70
     0
102
RTVSPropertyOp52
 70
     0
102
RTVSPropertyOp53
 70
     1
102
RTVSPropertyOp54
 70
     1
102
RTVSPropertyOp55
 70
     1
102
RTVSPropertyOp56
 70
     1
102
RTVSPropertyOp57
 70
     1
102
RTVSPropertyOp58
 70
     1
102
RTVSPropertyOp59
 70
     1
102
RTVSPropertyOp60
 70
     1
102
RTVSPropertyOp61
 70
     1
102
RTVSPropertyOp62
 70
     1
  0
XRECORD
  5
683
102
{ACAD_REACTORS
330
682
102
}
330
682
100
AcDbXrecord
280
     1
102
RTVSPost2010Prop28
280
     0
102
RTVSPost2010PropOp28
 70
     1
102
RTVSPost2010Prop29
280
     1
102
RTVSPost2010PropOp29
 70
     1
102
RTVSPost2010Prop30
280
     1
102
RTVSPost2010PropOp30
 70
     1
102
RTVSPost2010Prop31
280
     0
102
RTVSPost2010PropOp31
 70
     1
102
RTVSPost2010Prop32
280
     0
102
RTVSPost2010PropOp32
 70
     1
102
RTVSPost2010Prop33
280
     0
102
RTVSPost2010PropOp33
 70
     1
102
RTVSPost2010Prop34
280
     0
102
RTVSPost2010PropOp34
 70
     1
102
RTVSPost2010Prop35
280
     0
102
RTVSPost2010PropOp35
 70
     1
102
RTVSPost2010Prop36
280
     0
102
RTVSPost2010PropOp36
 70
     1
102
RTVSPost2010Prop37
 90
       50
102
RTVSPost2010PropOp37
 70
     1
102
RTVSPost2010Prop38
140
0.0
102
RTVSPost2010PropOp38
 70
     1
102
RTVSPost2010Prop39
140
1.0
102
RTVSPost2010PropOp39
 70
     1
102
RTVSPost2010Prop40
 90
        0
102
RTVSPost2010PropOp40
 70
     1
102
RTVSPost2010Prop41ColorIndex
 90
       18
102
RTVSPost2010Prop41ColorRGB
 90
        0
102
RTVSPost2010PropOp41
 70
     1
102
RTVSPost2010Prop42
 90
       50
102
RTVSPost2010PropOp42
 70
     1
102
RTVSPost2010Prop43
 90
        3
102
RTVSPost2010PropOp43
 70
     1
102
RTVSPost2010Prop44ColorIndex
 90
        5
102
RTVSPost2010Prop44ColorRGB
 90
      255
102
RTVSPost2010PropOp44
 70
     1
102
RTVSPost2010Prop45
280
     0
102
RTVSPost2010PropOp45
 70
     1
102
RTVSPost2010Prop46
 90
       50
102
RTVSPost2010PropOp46
 70
     1
102
RTVSPost2010Prop47
 90
       50
102
RTVSPost2010PropOp47
 70
     1
102
RTVSPost2010Prop48
 90
       50
102
RTVSPost2010PropOp48
 70
     1
102
RTVSPost2010Prop49
280
     0
102
RTVSPost2010PropOp49
 70
     1
102
RTVSPost2010Prop50
 90
       50
102
RTVSPost2010PropOp50
 70
     1
102
RTVSPost2010Prop51ColorIndex
 90
      256
102
RTVSPost2010Prop51ColorRGB
 90
-16777216
102
RTVSPost2010PropOp51
 70
     0
102
RTVSPost2010Prop52
140
1.0
102
RTVSPost2010PropOp52
 70
     0
102
RTVSPost2010Prop53
 90
        2
102
RTVSPost2010PropOp53
 70
     1
102
RTVSPost2010Prop54
  1
strokes_ogs.tif
102
RTVSPost2010PropOp54
 70
     1
102
RTVSPost2010Prop55
280
     0
102
RTVSPost2010PropOp55
 70
     1
102
RTVSPost2010Prop56
140
1.0
102
RTVSPost2010PropOp56
 70
     1
102
RTVSPost2010Prop57
140
1.0
102
RTVSPost2010PropOp57
 70
     1
102
RTVSPropertyOp0
 70
     0
102
RTVSPropertyOp1
 70
     0
102
RTVSPropertyOp2
 70
     0
102
RTVSPropertyOp3
 70
     0
102
RTVSPropertyOp4
 70
     0
102
RTVSPropertyOp5
 70
     0
102
RTVSPropertyOp6
 70
     0
102
RTVSPropertyOp7
 70
     0
102
RTVSPropertyOp8
 70
     0
102
RTVSPropertyOp9
 70
     0
102
RTVSPropertyOp10
 70
     0
102
RTVSPropertyOp11
 70
     0
102
RTVSPropertyOp12
 70
     0
102
RTVSPropertyOp13
 70
     0
102
RTVSPropertyOp14
 70
     2
102
RTVSPropertyOp15
 70
     0
102
RTVSPropertyOp16
 70
     0
102
RTVSPropertyOp17
 70
     0
102
RTVSPropertyOp18
 70
     0
102
RTVSPropertyOp19
 70
     0
102
RTVSPropertyOp20
 70
     0
102
RTVSPropertyOp21
 70
     0
102
RTVSPropertyOp22
 70
     0
102
RTVSPropertyOp23
 70
     0
102
RTVSPropertyOp24
 70
     0
102
RTVSPropertyOp25
 70
     0
102
RTVSPropertyOp26
 70
     0
102
RTVSPropertyOp27
 70
     0
102
RTVSPropertyOp28
 70
     1
102
RTVSPropertyOp29
 70
     1
102
RTVSPropertyOp30
 70
     1
102
RTVSPropertyOp31
 70
     1
102
RTVSPropertyOp32
 70
     1
102
RTVSPropertyOp33
 70
     1
102
RTVSPropertyOp34
 70
     1
102
RTVSPropertyOp35
 70
     1
102
RTVSPropertyOp36
 70
     1
102
RTVSPropertyOp37
 70
     1
102
RTVSPropertyOp38
 70
     1
102
RTVSPropertyOp39
 70
     1
102
RTVSPropertyOp40
 70
     1
102
RTVSPropertyOp41
 70
     1
102
RTVSPropertyOp42
 70
     1
102
RTVSPropertyOp43
 70
     1
102
RTVSPropertyOp44
 70
     1
102
RTVSPropertyOp45
 70
     1
102
RTVSPropertyOp46
 70
     1
102
RTVSPropertyOp47
 70
     1
102
RTVSPropertyOp48
 70
     1
102
RTVSPropertyOp49
 70
     1
102
RTVSPropertyOp50
 70
     1
102
RTVSPropertyOp51
 70
     0
102
RTVSPropertyOp52
 70
     0
102
RTVSPropertyOp53
 70
     1
102
RTVSPropertyOp54
 70
     1
102
RTVSPropertyOp55
 70
     1
102
RTVSPropertyOp56
 70
     1
102
RTVSPropertyOp57
 70
     1
102
RTVSPropertyOp58
 70
     1
102
RTVSPropertyOp59
 70
     1
102
RTVSPropertyOp60
 70
     1
102
RTVSPropertyOp61
 70
     1
102
RTVSPropertyOp62
 70
     1
  0
XRECORD
  5
673
102
{ACAD_REACTORS
330
672
102
}
330
672
100
AcDbXrecord
280
     1
102
RTVSPost2010Prop28
280
     0
102
RTVSPost2010PropOp28
 70
     1
102
RTVSPost2010Prop29
280
     1
102
RTVSPost2010PropOp29
 70
     1
102
RTVSPost2010Prop30
280
     1
102
RTVSPost2010PropOp30
 70
     1
102
RTVSPost2010Prop31
280
     0
102
RTVSPost2010PropOp31
 70
     1
102
RTVSPost2010Prop32
280
     0
102
RTVSPost2010PropOp32
 70
     1
102
RTVSPost2010Prop33
280
     0
102
RTVSPost2010PropOp33
 70
     1
102
RTVSPost2010Prop34
280
     0
102
RTVSPost2010PropOp34
 70
     1
102
RTVSPost2010Prop35
280
     0
102
RTVSPost2010PropOp35
 70
     1
102
RTVSPost2010Prop36
280
     0
102
RTVSPost2010PropOp36
 70
     1
102
RTVSPost2010Prop37
 90
       50
102
RTVSPost2010PropOp37
 70
     1
102
RTVSPost2010Prop38
140
0.0
102
RTVSPost2010PropOp38
 70
     1
102
RTVSPost2010Prop39
140
1.0
102
RTVSPost2010PropOp39
 70
     1
102
RTVSPost2010Prop40
 90
        0
102
RTVSPost2010PropOp40
 70
     1
102
RTVSPost2010Prop41ColorIndex
 90
       18
102
RTVSPost2010Prop41ColorRGB
 90
        0
102
RTVSPost2010PropOp41
 70
     1
102
RTVSPost2010Prop42
 90
       50
102
RTVSPost2010PropOp42
 70
     1
102
RTVSPost2010Prop43
 90
        3
102
RTVSPost2010PropOp43
 70
     1
102
RTVSPost2010Prop44ColorIndex
 90
        5
102
RTVSPost2010Prop44ColorRGB
 90
      255
102
RTVSPost2010PropOp44
 70
     1
102
RTVSPost2010Prop45
280
     0
102
RTVSPost2010PropOp45
 70
     1
102
RTVSPost2010Prop46
 90
       50
102
RTVSPost2010PropOp46
 70
     1
102
RTVSPost2010Prop47
 90
       50
102
RTVSPost2010PropOp47
 70
     1
102
RTVSPost2010Prop48
 90
       50
102
RTVSPost2010PropOp48
 70
     1
102
RTVSPost2010Prop49
280
     0
102
RTVSPost2010PropOp49
 70
     1
102
RTVSPost2010Prop50
 90
       50
102
RTVSPost2010PropOp50
 70
     1
102
RTVSPost2010Prop51ColorIndex
 90
      256
102
RTVSPost2010Prop51ColorRGB
 90
-16777216
102
RTVSPost2010PropOp51
 70
     0
102
RTVSPost2010Prop52
140
1.0
102
RTVSPost2010PropOp52
 70
     0
102
RTVSPost2010Prop53
 90
        2
102
RTVSPost2010PropOp53
 70
     1
102
RTVSPost2010Prop54
  1
strokes_ogs.tif
102
RTVSPost2010PropOp54
 70
     1
102
RTVSPost2010Prop55
280
     0
102
RTVSPost2010PropOp55
 70
     1
102
RTVSPost2010Prop56
140
1.0
102
RTVSPost2010PropOp56
 70
     1
102
RTVSPost2010Prop57
140
1.0
102
RTVSPost2010PropOp57
 70
     1
102
RTVSPropertyOp0
 70
     1
102
RTVSPropertyOp1
 70
     1
102
RTVSPropertyOp2
 70
     1
102
RTVSPropertyOp3
 70
     1
102
RTVSPropertyOp4
 70
     1
102
RTVSPropertyOp5
 70
     1
102
RTVSPropertyOp6
 70
     1
102
RTVSPropertyOp7
 70
     1
102
RTVSPropertyOp8
 70
     1
102
RTVSPropertyOp9
 70
     1
102
RTVSPropertyOp10
 70
     1
102
RTVSPropertyOp11
 70
     1
102
RTVSPropertyOp12
 70
     1
102
RTVSPropertyOp13
 70
     1
102
RTVSPropertyOp14
 70
     1
102
RTVSPropertyOp15
 70
     1
102
RTVSPropertyOp16
 70
     1
102
RTVSPropertyOp17
 70
     1
102
RTVSPropertyOp18
 70
     1
102
RTVSPropertyOp19
 70
     1
102
RTVSPropertyOp20
 70
     1
102
RTVSPropertyOp21
 70
     1
102
RTVSPropertyOp22
 70
     1
102
RTVSPropertyOp23
 70
     1
102
RTVSPropertyOp24
 70
     1
102
RTVSPropertyOp25
 70
     1
102
RTVSPropertyOp26
 70
     1
102
RTVSPropertyOp27
 70
     1
102
RTVSPropertyOp28
 70
     1
102
RTVSPropertyOp29
 70
     1
102
RTVSPropertyOp30
 70
     1
102
RTVSPropertyOp31
 70
     1
102
RTVSPropertyOp32
 70
     1
102
RTVSPropertyOp33
 70
     1
102
RTVSPropertyOp34
 70
     1
102
RTVSPropertyOp35
 70
     1
102
RTVSPropertyOp36
 70
     1
102
RTVSPropertyOp37
 70
     1
102
RTVSPropertyOp38
 70
     1
102
RTVSPropertyOp39
 70
     1
102
RTVSPropertyOp40
 70
     1
102
RTVSPropertyOp41
 70
     1
102
RTVSPropertyOp42
 70
     1
102
RTVSPropertyOp43
 70
     1
102
RTVSPropertyOp44
 70
     1
102
RTVSPropertyOp45
 70
     1
102
RTVSPropertyOp46
 70
     1
102
RTVSPropertyOp47
 70
     1
102
RTVSPropertyOp48
 70
     1
102
RTVSPropertyOp49
 70
     1
102
RTVSPropertyOp50
 70
     1
102
RTVSPropertyOp51
 70
     0
102
RTVSPropertyOp52
 70
     0
102
RTVSPropertyOp53
 70
     1
102
RTVSPropertyOp54
 70
     1
102
RTVSPropertyOp55
 70
     1
102
RTVSPropertyOp56
 70
     1
102
RTVSPropertyOp57
 70
     1
102
RTVSPropertyOp58
 70
     1
102
RTVSPropertyOp59
 70
     1
102
RTVSPropertyOp60
 70
     1
102
RTVSPropertyOp61
 70
     1
102
RTVSPropertyOp62
 70
     1
  0
XRECORD
  5
69A
102
{ACAD_REACTORS
330
699
102
}
330
699
100
AcDbXrecord
280
     1
102
RTVSPost2010Prop28
280
     0
102
RTVSPost2010PropOp28
 70
     1
102
RTVSPost2010Prop29
280
     1
102
RTVSPost2010PropOp29
 70
     1
102
RTVSPost2010Prop30
280
     1
102
RTVSPost2010PropOp30
 70
     1
102
RTVSPost2010Prop31
280
     0
102
RTVSPost2010PropOp31
 70
     1
102
RTVSPost2010Prop32
280
     0
102
RTVSPost2010PropOp32
 70
     1
102
RTVSPost2010Prop33
280
     0
102
RTVSPost2010PropOp33
 70
     1
102
RTVSPost2010Prop34
280
     0
102
RTVSPost2010PropOp34
 70
     1
102
RTVSPost2010Prop35
280
     0
102
RTVSPost2010PropOp35
 70
     1
102
RTVSPost2010Prop36
280
     0
102
RTVSPost2010PropOp36
 70
     1
102
RTVSPost2010Prop37
 90
       50
102
RTVSPost2010PropOp37
 70
     1
102
RTVSPost2010Prop38
140
0.0
102
RTVSPost2010PropOp38
 70
     1
102
RTVSPost2010Prop39
140
1.0
102
RTVSPost2010PropOp39
 70
     1
102
RTVSPost2010Prop40
 90
        0
102
RTVSPost2010PropOp40
 70
     1
102
RTVSPost2010Prop41ColorIndex
 90
       18
102
RTVSPost2010Prop41ColorRGB
 90
        0
102
RTVSPost2010PropOp41
 70
     1
102
RTVSPost2010Prop42
 90
       50
102
RTVSPost2010PropOp42
 70
     1
102
RTVSPost2010Prop43
 90
        3
102
RTVSPost2010PropOp43
 70
     1
102
RTVSPost2010Prop44ColorIndex
 90
        5
102
RTVSPost2010Prop44ColorRGB
 90
      255
102
RTVSPost2010PropOp44
 70
     1
102
RTVSPost2010Prop45
280
     0
102
RTVSPost2010PropOp45
 70
     1
102
RTVSPost2010Prop46
 90
       50
102
RTVSPost2010PropOp46
 70
     1
102
RTVSPost2010Prop47
 90
       50
102
RTVSPost2010PropOp47
 70
     1
102
RTVSPost2010Prop48
 90
       50
102
RTVSPost2010PropOp48
 70
     1
102
RTVSPost2010Prop49
280
     0
102
RTVSPost2010PropOp49
 70
     1
102
RTVSPost2010Prop50
 90
       50
102
RTVSPost2010PropOp50
 70
     1
102
RTVSPost2010Prop51ColorIndex
 90
      256
102
RTVSPost2010Prop51ColorRGB
 90
-16777216
102
RTVSPost2010PropOp51
 70
     0
102
RTVSPost2010Prop52
140
1.0
102
RTVSPost2010PropOp52
 70
     0
102
RTVSPost2010Prop53
 90
        2
102
RTVSPost2010PropOp53
 70
     1
102
RTVSPost2010Prop54
  1
strokes_ogs.tif
102
RTVSPost2010PropOp54
 70
     1
102
RTVSPost2010Prop55
280
     0
102
RTVSPost2010PropOp55
 70
     1
102
RTVSPost2010Prop56
140
1.0
102
RTVSPost2010PropOp56
 70
     1
102
RTVSPost2010Prop57
140
1.0
102
RTVSPost2010PropOp57
 70
     1
102
RTVSPropertyOp0
 70
     1
102
RTVSPropertyOp1
 70
     1
102
RTVSPropertyOp2
 70
     1
102
RTVSPropertyOp3
 70
     1
102
RTVSPropertyOp4
 70
     1
102
RTVSPropertyOp5
 70
     1
102
RTVSPropertyOp6
 70
     1
102
RTVSPropertyOp7
 70
     1
102
RTVSPropertyOp8
 70
     1
102
RTVSPropertyOp9
 70
     1
102
RTVSPropertyOp10
 70
     1
102
RTVSPropertyOp11
 70
     1
102
RTVSPropertyOp12
 70
     1
102
RTVSPropertyOp13
 70
     1
102
RTVSPropertyOp14
 70
     1
102
RTVSPropertyOp15
 70
     1
102
RTVSPropertyOp16
 70
     1
102
RTVSPropertyOp17
 70
     1
102
RTVSPropertyOp18
 70
     1
102
RTVSPropertyOp19
 70
     1
102
RTVSPropertyOp20
 70
     1
102
RTVSPropertyOp21
 70
     1
102
RTVSPropertyOp22
 70
     1
102
RTVSPropertyOp23
 70
     1
102
RTVSPropertyOp24
 70
     1
102
RTVSPropertyOp25
 70
     1
102
RTVSPropertyOp26
 70
     1
102
RTVSPropertyOp27
 70
     1
102
RTVSPropertyOp28
 70
     1
102
RTVSPropertyOp29
 70
     1
102
RTVSPropertyOp30
 70
     1
102
RTVSPropertyOp31
 70
     1
102
RTVSPropertyOp32
 70
     1
102
RTVSPropertyOp33
 70
     1
102
RTVSPropertyOp34
 70
     1
102
RTVSPropertyOp35
 70
     1
102
RTVSPropertyOp36
 70
     1
102
RTVSPropertyOp37
 70
     1
102
RTVSPropertyOp38
 70
     1
102
RTVSPropertyOp39
 70
     1
102
RTVSPropertyOp40
 70
     1
102
RTVSPropertyOp41
 70
     1
102
RTVSPropertyOp42
 70
     1
102
RTVSPropertyOp43
 70
     1
102
RTVSPropertyOp44
 70
     1
102
RTVSPropertyOp45
 70
     1
102
RTVSPropertyOp46
 70
     1
102
RTVSPropertyOp47
 70
     1
102
RTVSPropertyOp48
 70
     1
102
RTVSPropertyOp49
 70
     1
102
RTVSPropertyOp50
 70
     1
102
RTVSPropertyOp51
 70
     0
102
RTVSPropertyOp52
 70
     0
102
RTVSPropertyOp53
 70
     1
102
RTVSPropertyOp54
 70
     1
102
RTVSPropertyOp55
 70
     1
102
RTVSPropertyOp56
 70
     1
102
RTVSPropertyOp57
 70
     1
102
RTVSPropertyOp58
 70
     1
102
RTVSPropertyOp59
 70
     1
102
RTVSPropertyOp60
 70
     1
102
RTVSPropertyOp61
 70
     1
102
RTVSPropertyOp62
 70
     1
  0
XRECORD
  5
698
102
{ACAD_REACTORS
330
697
102
}
330
697
100
AcDbXrecord
280
     1
102
RTVSPost2010Prop28
280
     0
102
RTVSPost2010PropOp28
 70
     1
102
RTVSPost2010Prop29
280
     1
102
RTVSPost2010PropOp29
 70
     1
102
RTVSPost2010Prop30
280
     1
102
RTVSPost2010PropOp30
 70
     1
102
RTVSPost2010Prop31
280
     0
102
RTVSPost2010PropOp31
 70
     1
102
RTVSPost2010Prop32
280
     0
102
RTVSPost2010PropOp32
 70
     1
102
RTVSPost2010Prop33
280
     0
102
RTVSPost2010PropOp33
 70
     1
102
RTVSPost2010Prop34
280
     0
102
RTVSPost2010PropOp34
 70
     1
102
RTVSPost2010Prop35
280
     0
102
RTVSPost2010PropOp35
 70
     1
102
RTVSPost2010Prop36
280
     0
102
RTVSPost2010PropOp36
 70
     1
102
RTVSPost2010Prop37
 90
       50
102
RTVSPost2010PropOp37
 70
     1
102
RTVSPost2010Prop38
140
0.0
102
RTVSPost2010PropOp38
 70
     1
102
RTVSPost2010Prop39
140
1.0
102
RTVSPost2010PropOp39
 70
     1
102
RTVSPost2010Prop40
 90
        0
102
RTVSPost2010PropOp40
 70
     1
102
RTVSPost2010Prop41ColorIndex
 90
       18
102
RTVSPost2010Prop41ColorRGB
 90
        0
102
RTVSPost2010PropOp41
 70
     1
102
RTVSPost2010Prop42
 90
       50
102
RTVSPost2010PropOp42
 70
     1
102
RTVSPost2010Prop43
 90
        3
102
RTVSPost2010PropOp43
 70
     1
102
RTVSPost2010Prop44ColorIndex
 90
        5
102
RTVSPost2010Prop44ColorRGB
 90
      255
102
RTVSPost2010PropOp44
 70
     1
102
RTVSPost2010Prop45
280
     0
102
RTVSPost2010PropOp45
 70
     1
102
RTVSPost2010Prop46
 90
       50
102
RTVSPost2010PropOp46
 70
     1
102
RTVSPost2010Prop47
 90
       50
102
RTVSPost2010PropOp47
 70
     1
102
RTVSPost2010Prop48
 90
       50
102
RTVSPost2010PropOp48
 70
     1
102
RTVSPost2010Prop49
280
     0
102
RTVSPost2010PropOp49
 70
     1
102
RTVSPost2010Prop50
 90
       50
102
RTVSPost2010PropOp50
 70
     1
102
RTVSPost2010Prop51ColorIndex
 90
      256
102
RTVSPost2010Prop51ColorRGB
 90
-16777216
102
RTVSPost2010PropOp51
 70
     0
102
RTVSPost2010Prop52
140
1.0
102
RTVSPost2010PropOp52
 70
     0
102
RTVSPost2010Prop53
 90
        2
102
RTVSPost2010PropOp53
 70
     1
102
RTVSPost2010Prop54
  1
strokes_ogs.tif
102
RTVSPost2010PropOp54
 70
     1
102
RTVSPost2010Prop55
280
     0
102
RTVSPost2010PropOp55
 70
     1
102
RTVSPost2010Prop56
140
1.0
102
RTVSPost2010PropOp56
 70
     1
102
RTVSPost2010Prop57
140
1.0
102
RTVSPost2010PropOp57
 70
     1
102
RTVSPropertyOp0
 70
     1
102
RTVSPropertyOp1
 70
     1
102
RTVSPropertyOp2
 70
     1
102
RTVSPropertyOp3
 70
     1
102
RTVSPropertyOp4
 70
     1
102
RTVSPropertyOp5
 70
     1
102
RTVSPropertyOp6
 70
     1
102
RTVSPropertyOp7
 70
     1
102
RTVSPropertyOp8
 70
     1
102
RTVSPropertyOp9
 70
     1
102
RTVSPropertyOp10
 70
     1
102
RTVSPropertyOp11
 70
     1
102
RTVSPropertyOp12
 70
     1
102
RTVSPropertyOp13
 70
     1
102
RTVSPropertyOp14
 70
     1
102
RTVSPropertyOp15
 70
     1
102
RTVSPropertyOp16
 70
     1
102
RTVSPropertyOp17
 70
     1
102
RTVSPropertyOp18
 70
     1
102
RTVSPropertyOp19
 70
     1
102
RTVSPropertyOp20
 70
     1
102
RTVSPropertyOp21
 70
     1
102
RTVSPropertyOp22
 70
     1
102
RTVSPropertyOp23
 70
     1
102
RTVSPropertyOp24
 70
     1
102
RTVSPropertyOp25
 70
     1
102
RTVSPropertyOp26
 70
     1
102
RTVSPropertyOp27
 70
     1
102
RTVSPropertyOp28
 70
     1
102
RTVSPropertyOp29
 70
     1
102
RTVSPropertyOp30
 70
     1
102
RTVSPropertyOp31
 70
     1
102
RTVSPropertyOp32
 70
     1
102
RTVSPropertyOp33
 70
     1
102
RTVSPropertyOp34
 70
     1
102
RTVSPropertyOp35
 70
     1
102
RTVSPropertyOp36
 70
     1
102
RTVSPropertyOp37
 70
     1
102
RTVSPropertyOp38
 70
     1
102
RTVSPropertyOp39
 70
     1
102
RTVSPropertyOp40
 70
     1
102
RTVSPropertyOp41
 70
     1
102
RTVSPropertyOp42
 70
     1
102
RTVSPropertyOp43
 70
     1
102
RTVSPropertyOp44
 70
     1
102
RTVSPropertyOp45
 70
     1
102
RTVSPropertyOp46
 70
     1
102
RTVSPropertyOp47
 70
     1
102
RTVSPropertyOp48
 70
     1
102
RTVSPropertyOp49
 70
     1
102
RTVSPropertyOp50
 70
     1
102
RTVSPropertyOp51
 70
     0
102
RTVSPropertyOp52
 70
     0
102
RTVSPropertyOp53
 70
     1
102
RTVSPropertyOp54
 70
     1
102
RTVSPropertyOp55
 70
     1
102
RTVSPropertyOp56
 70
     1
102
RTVSPropertyOp57
 70
     1
102
RTVSPropertyOp58
 70
     1
102
RTVSPropertyOp59
 70
     1
102
RTVSPropertyOp60
 70
     1
102
RTVSPropertyOp61
 70
     1
102
RTVSPropertyOp62
 70
     1
  0
XRECORD
  5
692
102
{ACAD_REACTORS
330
691
102
}
330
691
100
AcDbXrecord
280
     1
102
RTVSPost2010Prop28
280
     0
102
RTVSPost2010PropOp28
 70
     1
102
RTVSPost2010Prop29
280
     1
102
RTVSPost2010PropOp29
 70
     1
102
RTVSPost2010Prop30
280
     1
102
RTVSPost2010PropOp30
 70
     1
102
RTVSPost2010Prop31
280
     0
102
RTVSPost2010PropOp31
 70
     1
102
RTVSPost2010Prop32
280
     0
102
RTVSPost2010PropOp32
 70
     1
102
RTVSPost2010Prop33
280
     0
102
RTVSPost2010PropOp33
 70
     1
102
RTVSPost2010Prop34
280
     0
102
RTVSPost2010PropOp34
 70
     1
102
RTVSPost2010Prop35
280
     0
102
RTVSPost2010PropOp35
 70
     1
102
RTVSPost2010Prop36
280
     0
102
RTVSPost2010PropOp36
 70
     1
102
RTVSPost2010Prop37
 90
       50
102
RTVSPost2010PropOp37
 70
     1
102
RTVSPost2010Prop38
140
0.0
102
RTVSPost2010PropOp38
 70
     1
102
RTVSPost2010Prop39
140
1.0
102
RTVSPost2010PropOp39
 70
     1
102
RTVSPost2010Prop40
 90
        0
102
RTVSPost2010PropOp40
 70
     1
102
RTVSPost2010Prop41ColorIndex
 90
       18
102
RTVSPost2010Prop41ColorRGB
 90
        0
102
RTVSPost2010PropOp41
 70
     1
102
RTVSPost2010Prop42
 90
       50
102
RTVSPost2010PropOp42
 70
     1
102
RTVSPost2010Prop43
 90
        3
102
RTVSPost2010PropOp43
 70
     1
102
RTVSPost2010Prop44ColorIndex
 90
        5
102
RTVSPost2010Prop44ColorRGB
 90
      255
102
RTVSPost2010PropOp44
 70
     1
102
RTVSPost2010Prop45
280
     0
102
RTVSPost2010PropOp45
 70
     1
102
RTVSPost2010Prop46
 90
       50
102
RTVSPost2010PropOp46
 70
     1
102
RTVSPost2010Prop47
 90
       50
102
RTVSPost2010PropOp47
 70
     1
102
RTVSPost2010Prop48
 90
       50
102
RTVSPost2010PropOp48
 70
     1
102
RTVSPost2010Prop49
280
     0
102
RTVSPost2010PropOp49
 70
     1
102
RTVSPost2010Prop50
 90
       50
102
RTVSPost2010PropOp50
 70
     1
102
RTVSPost2010Prop51ColorIndex
 90
      256
102
RTVSPost2010Prop51ColorRGB
 90
-16777216
102
RTVSPost2010PropOp51
 70
     0
102
RTVSPost2010Prop52
140
1.0
102
RTVSPost2010PropOp52
 70
     0
102
RTVSPost2010Prop53
 90
        2
102
RTVSPost2010PropOp53
 70
     1
102
RTVSPost2010Prop54
  1
strokes_ogs.tif
102
RTVSPost2010PropOp54
 70
     1
102
RTVSPost2010Prop55
280
     0
102
RTVSPost2010PropOp55
 70
     1
102
RTVSPost2010Prop56
140
1.0
102
RTVSPost2010PropOp56
 70
     1
102
RTVSPost2010Prop57
140
1.0
102
RTVSPost2010PropOp57
 70
     1
102
RTVSPropertyOp0
 70
     1
102
RTVSPropertyOp1
 70
     1
102
RTVSPropertyOp2
 70
     1
102
RTVSPropertyOp3
 70
     1
102
RTVSPropertyOp4
 70
     1
102
RTVSPropertyOp5
 70
     1
102
RTVSPropertyOp6
 70
     1
102
RTVSPropertyOp7
 70
     1
102
RTVSPropertyOp8
 70
     1
102
RTVSPropertyOp9
 70
     1
102
RTVSPropertyOp10
 70
     1
102
RTVSPropertyOp11
 70
     1
102
RTVSPropertyOp12
 70
     1
102
RTVSPropertyOp13
 70
     1
102
RTVSPropertyOp14
 70
     1
102
RTVSPropertyOp15
 70
     1
102
RTVSPropertyOp16
 70
     1
102
RTVSPropertyOp17
 70
     1
102
RTVSPropertyOp18
 70
     1
102
RTVSPropertyOp19
 70
     1
102
RTVSPropertyOp20
 70
     1
102
RTVSPropertyOp21
 70
     1
102
RTVSPropertyOp22
 70
     1
102
RTVSPropertyOp23
 70
     1
102
RTVSPropertyOp24
 70
     1
102
RTVSPropertyOp25
 70
     1
102
RTVSPropertyOp26
 70
     1
102
RTVSPropertyOp27
 70
     1
102
RTVSPropertyOp28
 70
     1
102
RTVSPropertyOp29
 70
     1
102
RTVSPropertyOp30
 70
     1
102
RTVSPropertyOp31
 70
     1
102
RTVSPropertyOp32
 70
     1
102
RTVSPropertyOp33
 70
     1
102
RTVSPropertyOp34
 70
     1
102
RTVSPropertyOp35
 70
     1
102
RTVSPropertyOp36
 70
     1
102
RTVSPropertyOp37
 70
     1
102
RTVSPropertyOp38
 70
     1
102
RTVSPropertyOp39
 70
     1
102
RTVSPropertyOp40
 70
     1
102
RTVSPropertyOp41
 70
     1
102
RTVSPropertyOp42
 70
     1
102
RTVSPropertyOp43
 70
     1
102
RTVSPropertyOp44
 70
     1
102
RTVSPropertyOp45
 70
     1
102
RTVSPropertyOp46
 70
     1
102
RTVSPropertyOp47
 70
     1
102
RTVSPropertyOp48
 70
     1
102
RTVSPropertyOp49
 70
     1
102
RTVSPropertyOp50
 70
     1
102
RTVSPropertyOp51
 70
     0
102
RTVSPropertyOp52
 70
     0
102
RTVSPropertyOp53
 70
     1
102
RTVSPropertyOp54
 70
     1
102
RTVSPropertyOp55
 70
     1
102
RTVSPropertyOp56
 70
     1
102
RTVSPropertyOp57
 70
     1
102
RTVSPropertyOp58
 70
     1
102
RTVSPropertyOp59
 70
     1
102
RTVSPropertyOp60
 70
     1
102
RTVSPropertyOp61
 70
     1
102
RTVSPropertyOp62
 70
     1
  0
XRECORD
  5
694
102
{ACAD_REACTORS
330
693
102
}
330
693
100
AcDbXrecord
280
     1
102
RTVSPost2010Prop28
280
     0
102
RTVSPost2010PropOp28
 70
     1
102
RTVSPost2010Prop29
280
     1
102
RTVSPost2010PropOp29
 70
     1
102
RTVSPost2010Prop30
280
     1
102
RTVSPost2010PropOp30
 70
     1
102
RTVSPost2010Prop31
280
     0
102
RTVSPost2010PropOp31
 70
     1
102
RTVSPost2010Prop32
280
     0
102
RTVSPost2010PropOp32
 70
     1
102
RTVSPost2010Prop33
280
     0
102
RTVSPost2010PropOp33
 70
     1
102
RTVSPost2010Prop34
280
     0
102
RTVSPost2010PropOp34
 70
     1
102
RTVSPost2010Prop35
280
     0
102
RTVSPost2010PropOp35
 70
     1
102
RTVSPost2010Prop36
280
     0
102
RTVSPost2010PropOp36
 70
     1
102
RTVSPost2010Prop37
 90
       50
102
RTVSPost2010PropOp37
 70
     1
102
RTVSPost2010Prop38
140
0.0
102
RTVSPost2010PropOp38
 70
     1
102
RTVSPost2010Prop39
140
1.0
102
RTVSPost2010PropOp39
 70
     1
102
RTVSPost2010Prop40
 90
        0
102
RTVSPost2010PropOp40
 70
     1
102
RTVSPost2010Prop41ColorIndex
 90
       18
102
RTVSPost2010Prop41ColorRGB
 90
        0
102
RTVSPost2010PropOp41
 70
     1
102
RTVSPost2010Prop42
 90
       50
102
RTVSPost2010PropOp42
 70
     1
102
RTVSPost2010Prop43
 90
        3
102
RTVSPost2010PropOp43
 70
     1
102
RTVSPost2010Prop44ColorIndex
 90
        5
102
RTVSPost2010Prop44ColorRGB
 90
      255
102
RTVSPost2010PropOp44
 70
     1
102
RTVSPost2010Prop45
280
     0
102
RTVSPost2010PropOp45
 70
     1
102
RTVSPost2010Prop46
 90
       50
102
RTVSPost2010PropOp46
 70
     1
102
RTVSPost2010Prop47
 90
       50
102
RTVSPost2010PropOp47
 70
     1
102
RTVSPost2010Prop48
 90
       50
102
RTVSPost2010PropOp48
 70
     1
102
RTVSPost2010Prop49
280
     0
102
RTVSPost2010PropOp49
 70
     1
102
RTVSPost2010Prop50
 90
       50
102
RTVSPost2010PropOp50
 70
     1
102
RTVSPost2010Prop51ColorIndex
 90
      256
102
RTVSPost2010Prop51ColorRGB
 90
-16777216
102
RTVSPost2010PropOp51
 70
     0
102
RTVSPost2010Prop52
140
1.0
102
RTVSPost2010PropOp52
 70
     0
102
RTVSPost2010Prop53
 90
        2
102
RTVSPost2010PropOp53
 70
     1
102
RTVSPost2010Prop54
  1
strokes_ogs.tif
102
RTVSPost2010PropOp54
 70
     1
102
RTVSPost2010Prop55
280
     0
102
RTVSPost2010PropOp55
 70
     1
102
RTVSPost2010Prop56
140
1.0
102
RTVSPost2010PropOp56
 70
     1
102
RTVSPost2010Prop57
140
1.0
102
RTVSPost2010PropOp57
 70
     1
102
RTVSPropertyOp0
 70
     1
102
RTVSPropertyOp1
 70
     1
102
RTVSPropertyOp2
 70
     1
102
RTVSPropertyOp3
 70
     1
102
RTVSPropertyOp4
 70
     1
102
RTVSPropertyOp5
 70
     1
102
RTVSPropertyOp6
 70
     1
102
RTVSPropertyOp7
 70
     1
102
RTVSPropertyOp8
 70
     1
102
RTVSPropertyOp9
 70
     1
102
RTVSPropertyOp10
 70
     1
102
RTVSPropertyOp11
 70
     1
102
RTVSPropertyOp12
 70
     1
102
RTVSPropertyOp13
 70
     1
102
RTVSPropertyOp14
 70
     1
102
RTVSPropertyOp15
 70
     1
102
RTVSPropertyOp16
 70
     1
102
RTVSPropertyOp17
 70
     1
102
RTVSPropertyOp18
 70
     1
102
RTVSPropertyOp19
 70
     1
102
RTVSPropertyOp20
 70
     1
102
RTVSPropertyOp21
 70
     1
102
RTVSPropertyOp22
 70
     1
102
RTVSPropertyOp23
 70
     1
102
RTVSPropertyOp24
 70
     1
102
RTVSPropertyOp25
 70
     1
102
RTVSPropertyOp26
 70
     1
102
RTVSPropertyOp27
 70
     1
102
RTVSPropertyOp28
 70
     1
102
RTVSPropertyOp29
 70
     1
102
RTVSPropertyOp30
 70
     1
102
RTVSPropertyOp31
 70
     1
102
RTVSPropertyOp32
 70
     1
102
RTVSPropertyOp33
 70
     1
102
RTVSPropertyOp34
 70
     1
102
RTVSPropertyOp35
 70
     1
102
RTVSPropertyOp36
 70
     1
102
RTVSPropertyOp37
 70
     1
102
RTVSPropertyOp38
 70
     1
102
RTVSPropertyOp39
 70
     1
102
RTVSPropertyOp40
 70
     1
102
RTVSPropertyOp41
 70
     1
102
RTVSPropertyOp42
 70
     1
102
RTVSPropertyOp43
 70
     1
102
RTVSPropertyOp44
 70
     1
102
RTVSPropertyOp45
 70
     1
102
RTVSPropertyOp46
 70
     1
102
RTVSPropertyOp47
 70
     1
102
RTVSPropertyOp48
 70
     1
102
RTVSPropertyOp49
 70
     1
102
RTVSPropertyOp50
 70
     1
102
RTVSPropertyOp51
 70
     0
102
RTVSPropertyOp52
 70
     0
102
RTVSPropertyOp53
 70
     1
102
RTVSPropertyOp54
 70
     1
102
RTVSPropertyOp55
 70
     1
102
RTVSPropertyOp56
 70
     1
102
RTVSPropertyOp57
 70
     1
102
RTVSPropertyOp58
 70
     1
102
RTVSPropertyOp59
 70
     1
102
RTVSPropertyOp60
 70
     1
102
RTVSPropertyOp61
 70
     1
102
RTVSPropertyOp62
 70
     1
  0
XRECORD
  5
679
102
{ACAD_REACTORS
330
678
102
}
330
678
100
AcDbXrecord
280
     1
102
RTVSPost2010Prop28
280
     0
102
RTVSPost2010PropOp28
 70
     1
102
RTVSPost2010Prop29
280
     1
102
RTVSPost2010PropOp29
 70
     1
102
RTVSPost2010Prop30
280
     1
102
RTVSPost2010PropOp30
 70
     1
102
RTVSPost2010Prop31
280
     0
102
RTVSPost2010PropOp31
 70
     1
102
RTVSPost2010Prop32
280
     0
102
RTVSPost2010PropOp32
 70
     1
102
RTVSPost2010Prop33
280
     0
102
RTVSPost2010PropOp33
 70
     1
102
RTVSPost2010Prop34
280
     0
102
RTVSPost2010PropOp34
 70
     1
102
RTVSPost2010Prop35
280
     0
102
RTVSPost2010PropOp35
 70
     1
102
RTVSPost2010Prop36
280
     0
102
RTVSPost2010PropOp36
 70
     1
102
RTVSPost2010Prop37
 90
       50
102
RTVSPost2010PropOp37
 70
     1
102
RTVSPost2010Prop38
140
0.0
102
RTVSPost2010PropOp38
 70
     1
102
RTVSPost2010Prop39
140
1.0
102
RTVSPost2010PropOp39
 70
     1
102
RTVSPost2010Prop40
 90
        0
102
RTVSPost2010PropOp40
 70
     1
102
RTVSPost2010Prop41ColorIndex
 90
       18
102
RTVSPost2010Prop41ColorRGB
 90
        0
102
RTVSPost2010PropOp41
 70
     1
102
RTVSPost2010Prop42
 90
       50
102
RTVSPost2010PropOp42
 70
     1
102
RTVSPost2010Prop43
 90
        3
102
RTVSPost2010PropOp43
 70
     1
102
RTVSPost2010Prop44ColorIndex
 90
        5
102
RTVSPost2010Prop44ColorRGB
 90
      255
102
RTVSPost2010PropOp44
 70
     1
102
RTVSPost2010Prop45
280
     0
102
RTVSPost2010PropOp45
 70
     1
102
RTVSPost2010Prop46
 90
       50
102
RTVSPost2010PropOp46
 70
     1
102
RTVSPost2010Prop47
 90
       50
102
RTVSPost2010PropOp47
 70
     1
102
RTVSPost2010Prop48
 90
       50
102
RTVSPost2010PropOp48
 70
     1
102
RTVSPost2010Prop49
280
     0
102
RTVSPost2010PropOp49
 70
     1
102
RTVSPost2010Prop50
 90
       50
102
RTVSPost2010PropOp50
 70
     1
102
RTVSPost2010Prop51ColorIndex
 90
      256
102
RTVSPost2010Prop51ColorRGB
 90
-16777216
102
RTVSPost2010PropOp51
 70
     0
102
RTVSPost2010Prop52
140
1.0
102
RTVSPost2010PropOp52
 70
     0
102
RTVSPost2010Prop53
 90
        2
102
RTVSPost2010PropOp53
 70
     1
102
RTVSPost2010Prop54
  1
strokes_ogs.tif
102
RTVSPost2010PropOp54
 70
     1
102
RTVSPost2010Prop55
280
     0
102
RTVSPost2010PropOp55
 70
     1
102
RTVSPost2010Prop56
140
1.0
102
RTVSPost2010PropOp56
 70
     1
102
RTVSPost2010Prop57
140
1.0
102
RTVSPost2010PropOp57
 70
     1
102
RTVSPropertyOp0
 70
     1
102
RTVSPropertyOp1
 70
     1
102
RTVSPropertyOp2
 70
     1
102
RTVSPropertyOp3
 70
     1
102
RTVSPropertyOp4
 70
     1
102
RTVSPropertyOp5
 70
     1
102
RTVSPropertyOp6
 70
     1
102
RTVSPropertyOp7
 70
     1
102
RTVSPropertyOp8
 70
     1
102
RTVSPropertyOp9
 70
     1
102
RTVSPropertyOp10
 70
     1
102
RTVSPropertyOp11
 70
     1
102
RTVSPropertyOp12
 70
     1
102
RTVSPropertyOp13
 70
     1
102
RTVSPropertyOp14
 70
     1
102
RTVSPropertyOp15
 70
     1
102
RTVSPropertyOp16
 70
     1
102
RTVSPropertyOp17
 70
     1
102
RTVSPropertyOp18
 70
     1
102
RTVSPropertyOp19
 70
     1
102
RTVSPropertyOp20
 70
     1
102
RTVSPropertyOp21
 70
     1
102
RTVSPropertyOp22
 70
     1
102
RTVSPropertyOp23
 70
     1
102
RTVSPropertyOp24
 70
     1
102
RTVSPropertyOp25
 70
     1
102
RTVSPropertyOp26
 70
     1
102
RTVSPropertyOp27
 70
     1
102
RTVSPropertyOp28
 70
     1
102
RTVSPropertyOp29
 70
     1
102
RTVSPropertyOp30
 70
     1
102
RTVSPropertyOp31
 70
     1
102
RTVSPropertyOp32
 70
     1
102
RTVSPropertyOp33
 70
     1
102
RTVSPropertyOp34
 70
     1
102
RTVSPropertyOp35
 70
     1
102
RTVSPropertyOp36
 70
     1
102
RTVSPropertyOp37
 70
     1
102
RTVSPropertyOp38
 70
     1
102
RTVSPropertyOp39
 70
     1
102
RTVSPropertyOp40
 70
     1
102
RTVSPropertyOp41
 70
     1
102
RTVSPropertyOp42
 70
     1
102
RTVSPropertyOp43
 70
     1
102
RTVSPropertyOp44
 70
     1
102
RTVSPropertyOp45
 70
     1
102
RTVSPropertyOp46
 70
     1
102
RTVSPropertyOp47
 70
     1
102
RTVSPropertyOp48
 70
     1
102
RTVSPropertyOp49
 70
     1
102
RTVSPropertyOp50
 70
     1
102
RTVSPropertyOp51
 70
     0
102
RTVSPropertyOp52
 70
     0
102
RTVSPropertyOp53
 70
     1
102
RTVSPropertyOp54
 70
     1
102
RTVSPropertyOp55
 70
     1
102
RTVSPropertyOp56
 70
     1
102
RTVSPropertyOp57
 70
     1
102
RTVSPropertyOp58
 70
     1
102
RTVSPropertyOp59
 70
     1
102
RTVSPropertyOp60
 70
     1
102
RTVSPropertyOp61
 70
     1
102
RTVSPropertyOp62
 70
     1
  0
XRECORD
  5
68E
102
{ACAD_REACTORS
330
68D
102
}
330
68D
100
AcDbXrecord
280
     1
102
RTVSPost2010Prop28
280
     0
102
RTVSPost2010PropOp28
 70
     1
102
RTVSPost2010Prop29
280
     1
102
RTVSPost2010PropOp29
 70
     1
102
RTVSPost2010Prop30
280
     1
102
RTVSPost2010PropOp30
 70
     1
102
RTVSPost2010Prop31
280
     0
102
RTVSPost2010PropOp31
 70
     1
102
RTVSPost2010Prop32
280
     0
102
RTVSPost2010PropOp32
 70
     1
102
RTVSPost2010Prop33
280
     0
102
RTVSPost2010PropOp33
 70
     1
102
RTVSPost2010Prop34
280
     0
102
RTVSPost2010PropOp34
 70
     1
102
RTVSPost2010Prop35
280
     0
102
RTVSPost2010PropOp35
 70
     1
102
RTVSPost2010Prop36
280
     0
102
RTVSPost2010PropOp36
 70
     1
102
RTVSPost2010Prop37
 90
       50
102
RTVSPost2010PropOp37
 70
     1
102
RTVSPost2010Prop38
140
0.0
102
RTVSPost2010PropOp38
 70
     1
102
RTVSPost2010Prop39
140
1.0
102
RTVSPost2010PropOp39
 70
     1
102
RTVSPost2010Prop40
 90
        0
102
RTVSPost2010PropOp40
 70
     1
102
RTVSPost2010Prop41ColorIndex
 90
       18
102
RTVSPost2010Prop41ColorRGB
 90
        0
102
RTVSPost2010PropOp41
 70
     1
102
RTVSPost2010Prop42
 90
       50
102
RTVSPost2010PropOp42
 70
     1
102
RTVSPost2010Prop43
 90
        3
102
RTVSPost2010PropOp43
 70
     1
102
RTVSPost2010Prop44ColorIndex
 90
        5
102
RTVSPost2010Prop44ColorRGB
 90
      255
102
RTVSPost2010PropOp44
 70
     1
102
RTVSPost2010Prop45
280
     0
102
RTVSPost2010PropOp45
 70
     1
102
RTVSPost2010Prop46
 90
       50
102
RTVSPost2010PropOp46
 70
     1
102
RTVSPost2010Prop47
 90
       50
102
RTVSPost2010PropOp47
 70
     1
102
RTVSPost2010Prop48
 90
       50
102
RTVSPost2010PropOp48
 70
     1
102
RTVSPost2010Prop49
280
     0
102
RTVSPost2010PropOp49
 70
     1
102
RTVSPost2010Prop50
 90
       50
102
RTVSPost2010PropOp50
 70
     1
102
RTVSPost2010Prop51ColorIndex
 90
      256
102
RTVSPost2010Prop51ColorRGB
 90
-16777216
102
RTVSPost2010PropOp51
 70
     0
102
RTVSPost2010Prop52
140
1.0
102
RTVSPost2010PropOp52
 70
     0
102
RTVSPost2010Prop53
 90
        2
102
RTVSPost2010PropOp53
 70
     1
102
RTVSPost2010Prop54
  1
strokes_ogs.tif
102
RTVSPost2010PropOp54
 70
     1
102
RTVSPost2010Prop55
280
     0
102
RTVSPost2010PropOp55
 70
     1
102
RTVSPost2010Prop56
140
1.0
102
RTVSPost2010PropOp56
 70
     1
102
RTVSPost2010Prop57
140
1.0
102
RTVSPost2010PropOp57
 70
     1
102
RTVSPropertyOp0
 70
     1
102
RTVSPropertyOp1
 70
     1
102
RTVSPropertyOp2
 70
     1
102
RTVSPropertyOp3
 70
     1
102
RTVSPropertyOp4
 70
     1
102
RTVSPropertyOp5
 70
     1
102
RTVSPropertyOp6
 70
     1
102
RTVSPropertyOp7
 70
     1
102
RTVSPropertyOp8
 70
     1
102
RTVSPropertyOp9
 70
     1
102
RTVSPropertyOp10
 70
     1
102
RTVSPropertyOp11
 70
     1
102
RTVSPropertyOp12
 70
     1
102
RTVSPropertyOp13
 70
     1
102
RTVSPropertyOp14
 70
     1
102
RTVSPropertyOp15
 70
     1
102
RTVSPropertyOp16
 70
     1
102
RTVSPropertyOp17
 70
     1
102
RTVSPropertyOp18
 70
     1
102
RTVSPropertyOp19
 70
     1
102
RTVSPropertyOp20
 70
     1
102
RTVSPropertyOp21
 70
     1
102
RTVSPropertyOp22
 70
     1
102
RTVSPropertyOp23
 70
     1
102
RTVSPropertyOp24
 70
     1
102
RTVSPropertyOp25
 70
     1
102
RTVSPropertyOp26
 70
     1
102
RTVSPropertyOp27
 70
     1
102
RTVSPropertyOp28
 70
     1
102
RTVSPropertyOp29
 70
     1
102
RTVSPropertyOp30
 70
     1
102
RTVSPropertyOp31
 70
     1
102
RTVSPropertyOp32
 70
     1
102
RTVSPropertyOp33
 70
     1
102
RTVSPropertyOp34
 70
     1
102
RTVSPropertyOp35
 70
     1
102
RTVSPropertyOp36
 70
     1
102
RTVSPropertyOp37
 70
     1
102
RTVSPropertyOp38
 70
     1
102
RTVSPropertyOp39
 70
     1
102
RTVSPropertyOp40
 70
     1
102
RTVSPropertyOp41
 70
     1
102
RTVSPropertyOp42
 70
     1
102
RTVSPropertyOp43
 70
     1
102
RTVSPropertyOp44
 70
     1
102
RTVSPropertyOp45
 70
     1
102
RTVSPropertyOp46
 70
     1
102
RTVSPropertyOp47
 70
     1
102
RTVSPropertyOp48
 70
     1
102
RTVSPropertyOp49
 70
     1
102
RTVSPropertyOp50
 70
     1
102
RTVSPropertyOp51
 70
     0
102
RTVSPropertyOp52
 70
     0
102
RTVSPropertyOp53
 70
     1
102
RTVSPropertyOp54
 70
     1
102
RTVSPropertyOp55
 70
     1
102
RTVSPropertyOp56
 70
     1
102
RTVSPropertyOp57
 70
     1
102
RTVSPropertyOp58
 70
     1
102
RTVSPropertyOp59
 70
     1
102
RTVSPropertyOp60
 70
     1
102
RTVSPropertyOp61
 70
     1
102
RTVSPropertyOp62
 70
     1
  0
XRECORD
  5
696
102
{ACAD_REACTORS
330
695
102
}
330
695
100
AcDbXrecord
280
     1
102
RTVSPost2010Prop28
280
     0
102
RTVSPost2010PropOp28
 70
     1
102
RTVSPost2010Prop29
280
     1
102
RTVSPost2010PropOp29
 70
     1
102
RTVSPost2010Prop30
280
     1
102
RTVSPost2010PropOp30
 70
     1
102
RTVSPost2010Prop31
280
     0
102
RTVSPost2010PropOp31
 70
     1
102
RTVSPost2010Prop32
280
     0
102
RTVSPost2010PropOp32
 70
     1
102
RTVSPost2010Prop33
280
     0
102
RTVSPost2010PropOp33
 70
     1
102
RTVSPost2010Prop34
280
     0
102
RTVSPost2010PropOp34
 70
     1
102
RTVSPost2010Prop35
280
     0
102
RTVSPost2010PropOp35
 70
     1
102
RTVSPost2010Prop36
280
     0
102
RTVSPost2010PropOp36
 70
     1
102
RTVSPost2010Prop37
 90
       50
102
RTVSPost2010PropOp37
 70
     1
102
RTVSPost2010Prop38
140
0.0
102
RTVSPost2010PropOp38
 70
     1
102
RTVSPost2010Prop39
140
1.0
102
RTVSPost2010PropOp39
 70
     1
102
RTVSPost2010Prop40
 90
        0
102
RTVSPost2010PropOp40
 70
     1
102
RTVSPost2010Prop41ColorIndex
 90
       18
102
RTVSPost2010Prop41ColorRGB
 90
        0
102
RTVSPost2010PropOp41
 70
     1
102
RTVSPost2010Prop42
 90
       50
102
RTVSPost2010PropOp42
 70
     1
102
RTVSPost2010Prop43
 90
        3
102
RTVSPost2010PropOp43
 70
     1
102
RTVSPost2010Prop44ColorIndex
 90
        5
102
RTVSPost2010Prop44ColorRGB
 90
      255
102
RTVSPost2010PropOp44
 70
     1
102
RTVSPost2010Prop45
280
     0
102
RTVSPost2010PropOp45
 70
     1
102
RTVSPost2010Prop46
 90
       50
102
RTVSPost2010PropOp46
 70
     1
102
RTVSPost2010Prop47
 90
       50
102
RTVSPost2010PropOp47
 70
     1
102
RTVSPost2010Prop48
 90
       50
102
RTVSPost2010PropOp48
 70
     1
102
RTVSPost2010Prop49
280
     0
102
RTVSPost2010PropOp49
 70
     1
102
RTVSPost2010Prop50
 90
       50
102
RTVSPost2010PropOp50
 70
     1
102
RTVSPost2010Prop51ColorIndex
 90
      256
102
RTVSPost2010Prop51ColorRGB
 90
-16777216
102
RTVSPost2010PropOp51
 70
     0
102
RTVSPost2010Prop52
140
1.0
102
RTVSPost2010PropOp52
 70
     0
102
RTVSPost2010Prop53
 90
        2
102
RTVSPost2010PropOp53
 70
     1
102
RTVSPost2010Prop54
  1
strokes_ogs.tif
102
RTVSPost2010PropOp54
 70
     1
102
RTVSPost2010Prop55
280
     0
102
RTVSPost2010PropOp55
 70
     1
102
RTVSPost2010Prop56
140
1.0
102
RTVSPost2010PropOp56
 70
     1
102
RTVSPost2010Prop57
140
1.0
102
RTVSPost2010PropOp57
 70
     1
102
RTVSPropertyOp0
 70
     1
102
RTVSPropertyOp1
 70
     1
102
RTVSPropertyOp2
 70
     1
102
RTVSPropertyOp3
 70
     1
102
RTVSPropertyOp4
 70
     1
102
RTVSPropertyOp5
 70
     1
102
RTVSPropertyOp6
 70
     1
102
RTVSPropertyOp7
 70
     1
102
RTVSPropertyOp8
 70
     1
102
RTVSPropertyOp9
 70
     1
102
RTVSPropertyOp10
 70
     1
102
RTVSPropertyOp11
 70
     1
102
RTVSPropertyOp12
 70
     1
102
RTVSPropertyOp13
 70
     1
102
RTVSPropertyOp14
 70
     1
102
RTVSPropertyOp15
 70
     1
102
RTVSPropertyOp16
 70
     1
102
RTVSPropertyOp17
 70
     1
102
RTVSPropertyOp18
 70
     1
102
RTVSPropertyOp19
 70
     1
102
RTVSPropertyOp20
 70
     1
102
RTVSPropertyOp21
 70
     1
102
RTVSPropertyOp22
 70
     1
102
RTVSPropertyOp23
 70
     1
102
RTVSPropertyOp24
 70
     1
102
RTVSPropertyOp25
 70
     1
102
RTVSPropertyOp26
 70
     1
102
RTVSPropertyOp27
 70
     1
102
RTVSPropertyOp28
 70
     1
102
RTVSPropertyOp29
 70
     1
102
RTVSPropertyOp30
 70
     1
102
RTVSPropertyOp31
 70
     1
102
RTVSPropertyOp32
 70
     1
102
RTVSPropertyOp33
 70
     1
102
RTVSPropertyOp34
 70
     1
102
RTVSPropertyOp35
 70
     1
102
RTVSPropertyOp36
 70
     1
102
RTVSPropertyOp37
 70
     1
102
RTVSPropertyOp38
 70
     1
102
RTVSPropertyOp39
 70
     1
102
RTVSPropertyOp40
 70
     1
102
RTVSPropertyOp41
 70
     1
102
RTVSPropertyOp42
 70
     1
102
RTVSPropertyOp43
 70
     1
102
RTVSPropertyOp44
 70
     1
102
RTVSPropertyOp45
 70
     1
102
RTVSPropertyOp46
 70
     1
102
RTVSPropertyOp47
 70
     1
102
RTVSPropertyOp48
 70
     1
102
RTVSPropertyOp49
 70
     1
102
RTVSPropertyOp50
 70
     1
102
RTVSPropertyOp51
 70
     0
102
RTVSPropertyOp52
 70
     0
102
RTVSPropertyOp53
 70
     1
102
RTVSPropertyOp54
 70
     1
102
RTVSPropertyOp55
 70
     1
102
RTVSPropertyOp56
 70
     1
102
RTVSPropertyOp57
 70
     1
102
RTVSPropertyOp58
 70
     1
102
RTVSPropertyOp59
 70
     1
102
RTVSPropertyOp60
 70
     1
102
RTVSPropertyOp61
 70
     1
102
RTVSPropertyOp62
 70
     1
  0
ENDSEC
  0
EOF
